Incubus

Nebula Tabs



More from Incubus

Incubus Tabs
Incubus Chords
Incubus Bass
Incubus Lyrics

Title: Nebula
Band: Incubus
Album: S.C.I.E.N.C.E.
Tuning: Drop D (DADGBe)
Tabbed by: simpleppl@hotmail.com

---------------------------------
| ~ - ring out ... - palm mute |
---------------------------------

Verse
e|------
B|-11~--
G|------
D|------
A|------
D|------


Chorus (dist)
e|-----------------------------------|-----
B|-----------------------------------|-----
G|---------------8----------------8--|-9~--
D|-7-7--77-7-7-7-----7-7-77-7-7-7----|-----
A|-7-7--77-7-7-7-6---7-7-77-7-7-7-6--|-7~--
D|-7-7--77-7-7-7-----7-7-77-7-7-7----|-----
4x

(chorus/phaser) (dist)
e|------------------|-----------------------
B|------------------|-----------------------
G|------------------|-----------------------
D|---4-2-0-2-0---0--|-5---5-5-5--7---7-7-7-- repeat
A|-2-----------4----|-5---5-5-5--7---7-7-7-- 2 times
D|------------------|-5---5-5-5--7---7-7-7--
3x ..... .....

(dist)
e|--------------------------------------------------------
B|--------------------------------------------------------
G|--------------------------------------------------------
D|-0-00-0-0-00---0-00-0-0-00---00-0-0-0-00---0-00-0-0-00--
A|-0-00-0-0-00---0-00-0-0-00---00-0-0-0-00---0-00-0-0-00--
D|-0-00-0-0-00---0-00-0-0-00---00-0-0-0-00---0-00-0-0-00--
. .. . . .. . .. . . .. .. . . . .. . .. . . ..


Bridge (clean) (dist)
e|------------------|-------|-------------------- ---------14~----12~---------
B|------------------|-------|-------------------- --12~------------------15~--
G|------------------|-------|---11-9-7-9-7----7-- ----------------------------
D|---4-2-0-2-0---0--|-9~----|-9------------11---- repeat ----------------------------
A|-2-----------4----|-------|-------------------- 3 times ----------------------------
D|------------------|-------|-------------------- ----------------------------
4x 2x

(dist)
e|-------------------------------------------------------------------
B|-------------------------------------------------------------------
G|-----7-----7--------7------7--------7---------7--------7------7-7--
D|-------------------------------------------------------------------
A|-0-005-00-05-----0-05--00-05-----00-5-0-0-00--5-----0-05--00-05-5--
D|-0-00--00-0------0-0---00-0------00---0-0-00--------0-0---00-0-----
. .. .. . . . .. . .. . . .. . . .. .


End (dist)
e|-----------------------------------|-----
B|-----------------------------------|-----
G|---------------8----------------8--|-9~--
D|-7-7--77-7-7-7-----7-7-77-7-7-7----|-----
A|-7-7--77-7-7-7-6---7-7-77-7-7-7-6--|-7~--
D|-7-7--77-7-7-7-----7-7-77-7-7-7----|-----
4x

(chorus/phaser) (dist)
e|------------------|----------------------- ----
B|------------------|----------------------- ----
G|------------------|----------------------- -4--
D|---4-2-0-2-0---0--|-5---5-5-5--7---7-7-7-- repeat -4-- strum
A|-2-----------4----|-5---5-5-5--7---7-7-7-- 2 times -2-- till end
D|------------------|-5---5-5-5--7---7-7-7-- ----
3x ..... .....


Verse - 12x / Chorus
Chorus / Bridge
Verse - 8x / End
Get this song at amazon.com      Ebay     Ringtones Ringtones  


Learn to play: Songwriting, Piano, Harmonica, Guitar
Also available at Muzikum: Incubus - Nebula lyrics

Related Incubus Tabs

Summer Romance tabs
Priceless tabs
Wish You Were Here[100% Correct] tabs
Quicksand tabs
Smile Lines tabs
Megalomaniac tabs
Drive tabs
Stellar tabs
Are You In Bass tabs
Smokin Da Herb tabs
Hilikus Bass tabs
Nice To Know You tabs
Speak Free tabs
11 Am (Version 2) tabs
Certain Shade Of Green Solo tabs
Neither Of Us Can See tabs
Drive Solo tabs
Leech tabs
Isadore tabs
A Certain Shade Of Green Ver 3 tabs


Guitar Tabs









All tabs are property and copyright of their owners. All tabs provided for educational purposes only. Privacy Policy, DMCA