Incubus

Nebula Bass Tabs



More from Incubus

Incubus Tabs
Incubus Chords
Incubus Bass
Incubus Lyrics



Artist:Incubus
Track:Nebula
Album:S.C.I.E.N.C.E


VERSE RIFF:
G:--------------------------||
D:--------------------------||
A:--------------------------||
E:---/11--11-11-11--7-7-7---||
B:--------------------------||

HEAVY RIFF 1:
X 3
G:------------|--------------------------|-----------------||
D:------------|--------------------------|-----------------||
A:---------6--|---------6-------------6--|---------6---6---||
E:---5--5-----|--5--5-5----5--5-5-5-5----|--5--5-5---5-----||
B:------------|--------------------------|-----------------||

INTERLUDE RIFF 1:
X 3
G:-------------------|--------------------------||
D:-----4-2-0-2-0-----|--------------------------||
A:---2-----------4-5-|--------------------------||
E:-------------------|-3--3--3--3--5--5--5--5---||
B:-------------------|--------------------------||

BREAKDOWN RIFF:
X 2
G:--------------------|--------------------|-------------------------||
D:--------------------|--------------------|-------------------------||
A:--------------------|--------------------|--------------------2/---||
E:--------------------|--------------------|-------------------------||
B:---3--3-3-3--3-3-3--|--3-3--3-3--3-3-3---|---3--3-3-3--3-3-3-------||

Variation:
|----------------------------||
|----------------------------||
same same |--------------------2/7*---|| *=thrill
|----------------------------||
|---3--3-3-3--3-3-3----------||


INTERLUDE RIFF 2:
X 3
G:-------------------|----------||
D:-----4-2-0-2-0-----|----------||
A:---2-----------4-5-|----------||
E:-------------------|----------||
B:-------------------|-0----1---||

INTERLUDE RIFF 3:
G:----------------------||
D:----------------------||
A:----------------------||
E:-------------3--------||
B:---0----3---------1---||

HEAVY RIFF 2:
G:----------------------|--------------------||
D:----------------------|--------------------||
A:---------5---------5--|-------5------------||
E:----------------------|--------------------||
B:---3--3-----3--3-3----|--3-3----3--3-3-3---||

END:
G:-------||
D:-------||
A:-------||
E:---7---||
B:---0---||

RIGHT ORDER:
Verse riff X 8 " Do you enjoy your sight inside? "
Heavy riff 1 " Disconnect and let me drift... "
Interlude riff 1 X 2 " On overdrive! "
Breakdown riff
Verse riff X 8 " In little, black book do I confide "
Heavy riff 1 " Upon return, I conjure what was seen... "
Interlude riff 1 X 2
Breakdown riff variation " Prize, prize, prize "
Interlude riff 2 X 3
Interlude riff 3
Heavy riff 2
Heavy riff 1
Interlude riff 1 X 2



Get this song at amazon.com      Ebay     Ringtones Ringtones  


Learn to play: Songwriting, Piano, Harmonica, Guitar
Also available at Muzikum: Incubus - Nebula lyrics

Related Incubus Bass Tabs

The Warmth bass
Megalomanic bass
Nebula bass
Take Me To Your Leader bass
Steller .. Great bass
Certain Shade Of Green bass
Trouble In 421 bass
Azwethinkweiz bass
Sick sad little world bass
Aqueous Transmission bass
Smile Lines bass
Vitamin bass
Leech bass
New Skin bass
Nice To Know You bass
Have You Ever bass
Here In My Room bass
Aswethinkweiz bass
Follow ( First Movement Of The Oddyssey) bass
Drive bass


Guitar Tabs









All tabs are property and copyright of their owners. All tabs provided for educational purposes only. Privacy Policy, DMCA