Incubus

Morning View (whole Album) Tabs



More from Incubus

Incubus Tabs
Incubus Chords
Incubus Bass
Incubus Lyrics



Nice to know you
Normal tuning

Intro
|-7----|
|-10---|
|-11---|
|-9----|
|------|
|------|

Effect setup:

-Delay
-Phaser
What to do: Swell the volume on the guitar to get this streaming sound.


|------------------------------------------------------|
|----------------------p-------------------------------|
|---------7--7-7-------a---------7--7-7----------------|
|-0-4-4-4-7--7-7-0-4-4-u-0-4-4-4-7--7-7-0-4-4-4/7-7-7--|
|-0-4-4-4-5--5-5-0-4-4-s-0-4-4-4-5--5-5-0-4-4-4/7-7-7--|
|-0-2-2-2--------0-2-2-e-0-2-2-2--------0-2-2-2/5-5-5--|
Chorus
Needed for the Chorus:
-Distortion


|-7--------|
|-10-------|
|-11-------|
|-9--------|
|-----~~~--|
|-----~~~--|
Verse
Needed for the Verse:
-Delay
-Phaser
What to do: Just like playing the intro but the ~ means to slide your pick.
You play the swelled notes then you do a pick slide. You can hear it very distintly
in the song. Also when you do the pick slide, you still have delay and phaser on.


|-0---|-0---|-0---|-0---| |--------|
|-0---|-0---|-0---|-0---| |--------|
|-2---|-1---|-4---|-3---| |-7-72--| X2
|-2---|-2---|-5---|-4---| |-7-72--|
|-0---|-0---|-5---|-4---| |-5-5



Get this song at amazon.com      Ebay     Ringtones Ringtones  


Learn to play: Songwriting, Piano, Harmonica, Guitar
More Incubus lyrics available at Muzikum

Related Incubus Tabs

Privilege tabs
The Original tabs
Stellar tabs
Under My Umbrella tabs
Second Movement Of The Odyssey tabs
I Wish You Were Here tabs
Anna Molly tabs
Aqueous Tranmission tabs
Crowded Elevator tabs
I Miss You Acoustic tabs
Drive2 Crd tabs
Quicksand tabs
Hilikus Bass tabs
Agoraphobia tabs
Again And Again tabs
Drive tabs
Everything Is Dead (4th Movement) tabs
A Certain Shade Of Green Crd tabs
Follow tabs
Warning tabs


Guitar Tabs









All tabs are property and copyright of their owners. All tabs provided for educational purposes only. Privacy Policy, DMCA