Incubus

Morning View Bass Tabs



More from Incubus

Incubus Tabs
Incubus Chords
Incubus Bass
Incubus Lyrics

Artist: Incubus
Album:Morning View
Bassist:Dirk Lance
Tabbed By:James Wheable
hi thought as us bassists often get left out i'd put out this tab,
its been a long time in the making, so i hope its ok, :p
Key:
~:let ring
T:Thumb slap (hit thumb hard against string)
P:Pop (hook finger under string and release)
/:slide up
:slide down
h:hammeron
_____________________________________________________________________________
01-Nice to Know you
Standard Tunning
Intro (use sub-octave effect)
G------------------------------------------------------------------
D------------------------------------------------------------------ X4
A------------------------------------------------------------------
E--------12-14-14-10--10--10-10-12-14-14----12-14-14-10--10--10-/--
(0:37) sub-octave effect off
G-----------------------------------------------------------
D-----------------------------------------------------------
A-------5--5--5-----------------5--5--5---------------------
E-0-2-2---------0-0-0-2---0-2-2---------0--0-2-2-2-2-25-5--
Verses (0:58, 2:07) sub-octave effect on
G-r-----------------------------------------------------------------
D-e----------------------------------------------------------------- X3
A-s-----------------------------------------------------------------
E-t-------12-14-14-10--10--10-10-12-14-14----12-14-14-10--10--10-/--
G-------------------------------------------------------------
D-------------------------------------------------------------
A-------------------------------------------------------------
E-12-14-14-10--10---10-10-12-14-14----12-14-14-10--10---10-/--
Pre-Chorus (1:20, 2:29, 3:53) sub-octave effect off
G------------------------------------------------------------
D------------------------------------------------------------
A------------------------5-7---------------------------------
E-5----5--5------5---5-7-----5--5-5--5------5----5--5---0-2--
G-------------------------------------------------------------
D-------------------------------------------------------------
A--------------------------------------------------5-5--------
E-3----3--3------3---3--3/2-2--2--2--2--2----2---0-----0-0-0--
G------------------------------------------------------------------
D------------------------------------------------------------------
A------------------------5-7-12--12--12--12---12--12-----12/-------
E-5----5--5------5---5-7--------------------------------------0-2--
G------------------------------------------------------------
D------------------------------------------------------------
A------------------------------------------------------------
E-3----3--3------3----3--3--2--2--2--2--2---2-2-2-2-2-2-2-2--
Chorus (1:45, 2:54, 4:18) sub-octave effect off
G-----------------------------------------------------------
D-----------------------------------------------------------
A-------5--5--5-----------------5--5--5---------------------
E-0-2-2---------0-0-0-2---0-2-2---------0--0-2-2-2-2-25-5--
G------------------
D------------------
A---------0-3-5-0--
E-0-2-2-2----------
Bridge (3:15)
G-------------------------------------------
D-------------------------------------------
A-5--5---3~-3--3--3----3---3---3--3--3---3--
E-------------------------------------------
G------------------------------------------------------
D--------------------------------------7--7--7--7-7-7--
A-5---5----3~-3--3---3------3----3---3-----------------
E------------------------------------------------------
G-------------------------------------------
D-------------------------------------------
A-5--5---3~-3--3--3----3---3---3--3--3---3--
E-------------------------------------------
G------------------------------------------------------
D--------------------------------------7--7--7-7-7-7--
A-5---5----3~-3--3---3------3----3---3-----------------
E------------------------------------------------------
G-------------------------------------------
D-------------------------------------------
A-5--5---3--3--3--3----3---3---3--3--3---3--
E-------------------------------------------
G------------------------------------------------------
D--------------------------------------7--7--7--7-7-7--
A-5---5----3--3--3---3------3----3---3-----------------
E------------------------------------------------------
(4:34)
G----------------------------------------------------------------
D----------------------------------------------------------------
A-------5--5--5-----------------5--5--5------------2-2-2-0--0-0--
E-0-2-2---------0-0-0-2---0-2-2---------0--0-2-2-0---------------
___________________________________________________________________
02- Circles
Drop d tuning
Intro x2
guitar first then
(0:19)
G---------------------------| --------------------------|
D---------------------------| --------------------------|
A-----5-----5-----3-3-3-3---|x3 -----1-----1--------------|
D-0-3---0-3---3-0-----------| 0-3---0-3----0/3/5-5-5-5-|
Verse
G-------------------------------------- G--------------------------|
D-------------------------------------- D--------------------------|
A--------------------------------------x4 A-----------3-3-3-3-3-3----|x4
D-0-0- 12/-0-0-12/-15-15-10-10-6-6-3-3- D-1-1-1-1h3----------------|
Chorus x2
G---------------------
D---------------------
A--5-5-5-5-5-5-5-5-3-3 X3
D---------------------
G-------------------|
D-------------------|
A-------------------|
D3-3-3-3-3/8-8-8-8-8|
Verse
Chorus
Bridge
G-------------------|
D-------------------|
A---5--1------5--1--|x4 then end verse part into chorus, followed by intro then
D-5---------5------1|
G--------
D--------
A-------3 x4
D-00-000-
________________________________________________________________
03-Wish You were here
Standard Tuning
Intro/Chorus
G--------------------------------------------------
D--------------------------------------------------
A0-00------2-22--5-7-77--0-00----------------------
E----0-00---------------------0-00-000-2-22-5-0-00- x2
Verse
G-------------------------------------
D-------------------------------9h11h9
A--2--0------------2--0--------9------
E----------2/10-----------2/10-------- x3
verse ending changes on third to
G------
D------
A999-99
E------
Chorus (Same as intro)
Verse
Chorus
Bridge
G------------------------------
D------------------------------
A------------------------------
E222222222222-5555-333333333333 x3
G-----------------------------------
D-----------------------------------
A-----------------------------------
E222222222222-5555-333333333333/15x8 x1
then guitar plays and bass is silent followed by chorus and then
End Note:
D-12 (let ring)
_______________________________________________________________________
04-Just A phase
Standard Tuning
Guitar intro Bass begins (0:44)
G------9/11p9-----------------9/11p97h9----------------------
D----9--------------7h9-----9----------------------------7h9--
A-7~--------------9------7~----------------------------9------
E--------------7~-----------------------------------7~--------
G-----------------------------------------------------------
D----------------7h9-------------------7h9------------------
A--------------9---------------------9--------------------9-
E-----------7~--------------------7~-------------------7~---
G-----------9/11p9-----------------9/11p97h9-------------------
D7h9------9--------------7h9-----9------------------------------
A------7~--------------9------7~--------------------------------
E-------------------7~-------------------------3--3-3--3-3-3-3--
Verse
G----------------------------------------------- ---------------
D----------------------------------------------- ---------------
A----------------------------------------------- ---------------
E-3--2--2-2--2-2-2-2--2---0--------------------- --0---0-3--2-3-
Pre-Chorus
G-----------6----------------------------------6-------- ---------
D---------6----6-----------------5-----------6---6----- ----------
A----4--4----------6-----------4---4-------4---------6-- ----------
E-0--------------4----0---0-3--------3--0----------4---* -5~---5-4-
T T P P T T T Chorus
G------------------------------------ ---------------------------------
D------------------------------------ ---------------------------------
A------------------------------------ --3-3-3--------------------------
E-5~---5-5/85-5~---5-4-5~---5-5/85- --------4-40-0--5-5-5-5-5-3-3-3--
Verse
G--------------------------------- ---------------------------6----
D--------------------------------- -------------------------6----6-
A-----3-3-3----------------------- --------------------4--4--------
E-3---------4-4-0-0-5-5-5-5-5-3-3- --0---0-3--2-3--0---------------
Verse Fill
G--------------------------------6----------- ----6--------------
D-----------------5------------6---6--------- ------6------------
A---6-----------4---4--------4---------6----- --4-------6--------
E-4----0---0-3--------3--0-----------4-----0- --------4---4--5~--
PreChorus Chorus
G--------------------------------------- ------------------------------
D--------------------------------------- ------------------------------
A--------------------------------------- --3-3-3-----------------------
E-5-4-5~---5-5/85-5~---5-4-5~---5/85-- --------4-4-0-0-5-5-5-5-5-3-3-
".. Phase and I'm waiting .."
G-------------------------------------------------------------------
D-------------------------------------------------------------------
A-------3-3-3-------------------------3-3-3-------------------------
E-3-3---------4-4-0-0-5-5-5-5-5-3-3---------4-4-0-0-5-5-5-5-5-3-3-3-
G-----------------------------------
D-----------------------------------
A-----3-3-3-------------------------
E-3---------4-4-0-0-5~--------------
________________________________________________________________________
05-11AM
Standard Tuning
intro/chorus
G---------------------------------------------------
D---------------------------------------------------
A------------------------------------5-5-5/3-333333- 1x
E-0-0-0-0-0-0-8-8-8-8-8-8-0-0-0-0-0-0---------------
G-------------------------------------------
D-------------------------------------------
A------------------------------------------- 1x
E-0-0-0-0-0-0--8-8-8-8-8--5-5-5-5/8-8-8-8-8-
verse part 1
G-------------------------------------------
D-------------------------------------------
A-------------------------------------------
E-0-/5/8-0-0-/5-8---0-/5/8-8/10-10-8-8-8-8
verse part 2 Ending
G------------------- G------------
D------------------- D------------
A------------------- A------------
E5-5-5-5-8-8-8-8---- E--5-3-3-1---
last verse though it changes to this (2:48)
G----------------------------------------------------
D----------------------------------------------------
A----------------------------------------------------
E--3-1-3-1--3-1-3-1-3-1-3-1-3-1-3-1---0-0-0-0-0-0-0--
_______________________________________________________________________
06-Blood On the Ground
Drop D Tuning
Intro/Chorus:
x3 x1
G------------------- G-----------------
D------------------- D-----------------
A----------22------- A-----------------
D--00--00------33--- D-5555--5-3-3333--
Verse Part1: x5
G--------------------------------
D--------------------------------
A88----5-------------------8-8--
D--------------------------------
Verse Part2:
x2 x2
G------------------ ------------------
D------------------ ------------------
A-5---0---3-------- 555500003333-----
D-------------3---- -------------3333-
PreChorus:
G---------------------
D---------------------
A-222-----------------
D-----555-3---------3-
Bridge:
x3
G-------------------------------------------------------------------
A---------------------------------------------------5----5--5555----
B------------------------------------------------35-------------53--
D-0-----0-----0----0-----0-----0---5-----5-----57-----------------7-
_____________________________________________________________________
07-Mexico- No bass on this track- Phew! no tabbing for me..
_____________________________________________________________________
08-Warning.. ive already posted this tab but i'll copy it here
Standard Tuning
Intro (comes in when brandon says "see through sickness")
g---------
d---------
a--------- x4
e-2--0----
e-0-
Verse/chorus
PART1 PART2
g------------------- g------------
d------------------- d------------
a------------------- x3 a------------
e-7-77-7-77-77-5555- e-333-333-22-
PART3 play part 1 followed by part two the part 1
g-------------------- again followed by part 3
d--------------------
a-7-7777-10-1010-----
e--------------------
Play verse 1 once quietly then loudly before the next verse which has
a slightly different tempo. Listen to the cd to get it right
Bridge1
Same as intro
Bridge2
Bass comes in after guitar then play intro part, and then the same
part on the 3rd (A) string
g-------
d-------
a-2--0-- X4
e-------
ORDER
Intro
Verse x2
Chorus
Bridge1
Chorus
Bridge2
Chorus to fade out
______________________________________________________________________________
09-Echo
Standard Tuning
Intro/Verse:
G------------------------
D------------(7h9)-------
A-5~---------------------
E-------7~---------------
do the hammeron in parenthesis every other time
Pre-Chorus:( My biggest fear will be...)
G---------------------------------
D---------------------------------
A---------------------------------
E-3--3--3--3----1--1--1--1--1-----
Chorus:
G-----------------------------------------
D-----------------------------------------
A-5--5---5---5---5------------------------
E--------------------7---7--7---7----7----
_________________________________________________________________________________
10-Have You Ever
Drop D tuning
Intro
G---------------------------
D---------------------------
A---------------------------x8
D-555-555-555-0-0-0-0-3/8-8-
Verse
G-------------------------------------------------------
D-------------------------------------------------------
A---------------------------(2x on last)--(1-111-11111)-x4
D-1-1-1-0-1--5-7-7--3-5-5-5---1-1-1-0-1----8-888-88888--
Chorus
G-------------------------------------------
D-------------------------------------------
A-------3-3-5-5-555-55-0-0-0----------------x4
D-0-3-3----------------------5-5-3-3-333-33-
Intro Riff x1
Verse x4
Chorus x4
Bridge:
G-----------------------------
D-----------------------------
A--------0--------------1-----x3
D-3/15---7---0------3---8---5-
Chorus x4
Intro Riff x4
______________________________________________________________________
11-Are You In
Standard Tuning
Intro
G--14/16------14/16-----------
D--14/16------14/16-----------
A----------------------------- x2
E----------------------14\--
Pre-Verse
G--14h16p14------
D-----------16--
A----------------
E----------------
Verse first ending second ending
G----------------------- ---------2-----4p2-- ------------------
D----------------------- ----4---2--(2)------ ------------------
A--5---5-2-0---2-------- -------------------- --2--2--0-0--2----
E----------------0-2---- --2---2------------- ---------------0--
Chorus
G--------------------------------------------------------------------
D---------------------------------------------------------------0-2--
A--5-5-5-5-------------------------5-5-5-5------------------0-2------
E----------5-5-5-5-2-2-2-2-2-2-2-2---------5-5-5-5-2-2-2-2-----------
Bridge
G-------------------------
D---------5----7----------
A--------7----9-----10-7--
E--3-0--7----7----7-------
___________________________________________________________________________
11-Under My Umbrella
Standard Tuning
G---------------------------------------------------------------------
D-3-3-3--3-3-3--3-3-3--3-3-3------------------------------------------
A-----------------------------4-4-4--4-4-4--4-4-4--4-4-4-1-1-1--1-1-1-
E---------------------------------------------------------------------
x2
G----------------------------------------------- --------------------
D----------------------------------------------- --------------------
A-------------------------------6-6-6--4-4-4-4-- ---4-----4----------
E-1-1-1--1-1-1--4-4-4-4-4-4-4-4----------------- -----1-1---1-1--1-1-
G------------------------------ ---------------------------------
D------------------------------ ---------------------------------
A----------4-----4------------- -3-3--4-----4--------------------
E-3-3-6-6----1-1---1-1--1-1-4-4 --------1-1---1-1--1--1-3-3-6-6--
x3
G-----------------------------------------------------------------
D------------------------------3-3-3--3-3-3--3-3-3--3-3-3---------
A----------------------------------------------------------4-4-4--
E-4-1-1-4-1-1--1--1-1-1-0-0---------------------------------------
G-----------------------------------------------------------------------
D-----------------------------------------------------------------------
A4-4-4--4-4-4--4-4-4----------------------------------------------6-6-6-
E---------------------1-1-1--1-1-1--1-1-1--1-1-1--4-4-4-4-4-4-4-4-------
x2
G--------- ------------------------------------------------------
D--------- ------------------------------------------------------
A-4-4-4-4- ---4-----4--------------------4-----4---------------3-
E--------- -----1-1---1-1--1--1-3-3-6-6----1-1---1-1--1--1-4-4---
x2
G-------------------------------------------------------------
D-----------------------------------------------------------3-
A3--4-----4---------------------------------------------------
E-----1-1---1-1--1--1-3-3-6-6--4-1-1-4-1-1--1--1-1-1-0-0------
G-----------------------------------------------------------------------
D3-3--3-3-3--3-3-3------------------------------------------------------
A-------------------4-4-4--4-4-4--4-4-4--4-4-4--------------------------
E-----------------------------------------------1-1-1--1-1-1--1-1-1--1-1
x2
G----------------------------------- --------------------------------
D----------------------------------- --------------------------------
A-------------------6-6-6--4-4-4-4-- ---3-3----------6-6-6--4-4-4-4--
E1--4-4-4-4-4-4-4-4----------------- -------1-1--1-1-----------------
G---------------------------------------------------------------------
D-------------------------------3-3-3--3-3-3--3-3-3--3-3-3------------
A--------------1/3-3-3-3-3----------------------------------4-4-4--4--
E--1-1-1-1-1-4-------------4------------------------------------------
G-----------------------------------------------------------------------
D-----------------------------------------------------------------------
A4-4--4-4-4--4-4-4----------------------------------------------6-6-6---
E-------------------1-1-1--1-1-1--1-1-1--1-1-1--4-4-4-4-4-4-4-4---------
G-----------------------------------------------------------------
D-----------------------------------------------------------------
A4-4-4-4----3-3----------6-6-6--4-4-4-4---------------------------
E---------------1-1--1-1------------------6-6-6-6-6-6-6/12--------
______________________________________________________________________________
13-Aqueous Transmission
Drop D tuning
G|----------------------------------|
D|----------------------------------|
A|----5-5-555---7-------------------|
D|------------------9---0-----------|
_______________________________________________________________________________
Phew thats it!!!!!



Get this song at amazon.com      Ebay     Ringtones Ringtones  


Learn to play: Songwriting, Piano, Harmonica, Guitar
Also available at Muzikum: Incubus - Morning View lyrics

Related Incubus Bass Tabs

11 Am Tab bass
Deep Inside bass
Under My Umbrella(complete Five String) bass
11am bass
Just A Phase bass
Shaft bass
Aqueous Transmission bass
Redefine (5 String) bass
Version bass
Certain Shade Of Green bass
A Certain Shade Of Green bass
A Kiss To Send Us Off bass
Sink Beneath The Line bass
Favorite Things bass
Circles bass
Steller Make Yourself bass
Talk Show On Mute bass
Stellar bass
Megalomaniac bass
Wish You Where Here bass


Guitar Tabs









All tabs are property and copyright of their owners. All tabs provided for educational purposes only. Privacy Policy, DMCA

Online converter - videoconverter.com