Incubus

Mexico (Acoustic) Tabs



More from Incubus

Incubus Tabs
Incubus Chords
Incubus Bass
Incubus Lyrics

Incubus
Mexico
Tabbed by: Matt Kelly
           handycap_@hotmail.com
please contact me if you have any questions



e|--0--0--0--0------------0--0----------0--0------------0--0--|
B|--0--0--0--0--------------------8--8--0--0------------------|
G|-----------------9---9--2--2----9--9-----------9---9--2--2--|
D|-9--9--5--5------0---0---------9--9--5--5------0---0--------|
A|7--7--3--3-----10--10--3--3---7--7--3--3-----10--10--3--3---|
E|-------------08---8---1--1-----------------08---8---1--1----|


e|-----------------------------------------------------|
B|---------------------------------------------5555--3-|
G|---5--0---------5555-52---222---5------------7777-75-|
D|--44--5---5-5-555555-52---222--44--5--55-5-557777-75-|
A|-222--5--55-5-553333-30---000-222--5--55-5-555555-53-|
E|0000-03--33-3-33-------------0000-03--33-3-33--------|
Get this song at amazon.com      Ebay     Ringtones Ringtones  


Learn to play: Songwriting, Piano, Harmonica, Guitar
More Incubus lyrics available at Muzikum

Related Incubus Tabs

Drive6 tabs
Sick sad little world tabs
Anti-gravity Sax Solo Tabbed For Guitar tabs
ARE YOU IN? tabs
Vitamin tabs
Drive4 tabs
Echo tabs
Drive2 tabs
Make Yourself Acoustic tabs
Pistola tabs
Pardon Me Acoustic tabs
Morning View tabs
Certain Shade Of Green Acoustic Live tabs
Look Alive tabs
New Skin Correct tabs
Nice To Know You Live tabs
New Skin Acoustic tabs
Like A Virgin tabs
Hilikus Bass tabs
Glass Bass tabs


Guitar Tabs









All tabs are property and copyright of their owners. All tabs provided for educational purposes only. Privacy Policy, DMCA