Incubus

Megolomaniac Bass Tabs



More from Incubus

Incubus Tabs
Incubus Chords
Incubus Bass
Incubus Lyrics



iNTRODUCTiON

D------5------5------5------5----------------------

A--------------6-6--3-3----------------6-6-6--3---- xTWO
E-3-3-1-3--6-6------------3-3-1-3--6-6-------------


1ST VERSE

E-3-3-1-3---8-8-6-8---11-11-10-11-------------- xTWO

E-3-3-1-3---11-11-10-11---8-8-6-8--[0-1-3]---- AFTER SECOND TiME


PRE-CHORUS

A-------------------------------------------------3---
E-3-3-1-3--3-1-3--3-1-3--3-1-3--3-1-3--3-1-3--1-3-----


CHORUS

A--------------6-6--3-3----------------6-6-6--3---- xTWO
E-3-3-1-3--6-6------------3-3-1-3--6-6-------------


VERSE

D------------3-5-----------------------------------
E-3-3-1-3---------11-11-10-11---8-6-3-1------------

E-3-3-1-3---8-8-6-8---11-11-10-11------------------ xTWO

E-3-3-1-3---11-11-10-11---8-8-6-8--0-1-3---------


PRE-CHORUS

A-------------------------------------------------3-
E-3-3-1-3--3-1-3--3-1-3--3-1-3--3-1-3--3-1-3--1-3---


CHORUS
A--------------6-6--3-3----------------6-6-6--3---- xTWO
E-3-3-1-3--6-6------------3-3-1-3--6-6-------------


iNTERLUDE

A-3-5-8-10-8----------6-6-3-3-5-8-10-8--------6-6-3
E------------10-3-6-6------------------10-3-6-6---- xTWO

D--------------------3-------------------------------
A-3-5-5-5-5-3----------3-5-5-5-5-3-------------------
E-------------5-1------------------5-1--0--0--0------

D--------------------3---------------3-3-2-2-2-------
A-3-5-5-5-5-3----------3-5-5-5-5-3-------------3-----
E-------------5-1------------------5-------------5---

D--------------------3-------------------------------
A-3-5-5-5-5-3----------3-5-5-5-5-3-------------------
E-------------5-1------------------5-1---0--0--0-----

G---------------------------------------------------7
D--------------------3---------------3-3-5-3/7-10-7--
A-3-5-5-5-5-3----------3-5-5-5-5-3-------------------
E-------------5-1------------------5-----------------

D--------------------3-------------------------------
A-3-5-5-5-5-3----------3-5-5-5-5-3-------------------
E-------------5-1------------------5-1---0--0--0-----

D-------------5-3--3-3-3-----------------------------
A-3-5-5-5-5-3-----------3-5-5-5-5-3------------------
E----------------------------------5-1---0--0--0-----

D----2--3-------2--3-------2--3--------2--3----------
A-5----------5----------5-----------5----------------
E----------------------------------------------------

G--------------8-8-5-5--------------8-8-8-5----------
D-5-5-3-5--8-8---------5-5-3-5--8-8------------------


LAST CHORUS

A--------------6-6--3-3----------------6-6-6--3---- x 2
E-3-3-1-3--6-6------------3-3-1-3--6-6-------------

A-3-5-8-10-8----------6-6-3-3-5-8-10-8--------6-6-3 x 4
E------------10-3-6-6------------------10-3-6-6----


A---3~~~~~~~~


~ = ViBRATO

Brought to you by the BassMasta - http://www.tabs-database.com



Get this song at amazon.com      Ebay     Ringtones Ringtones  


Learn to play: Songwriting, Piano, Harmonica, Guitar
More Incubus lyrics available at Muzikum

Related Incubus Bass Tabs

Adolescents bass
Are You In bass
Agoraphobia bass
Smile Lines bass
Answer bass
Morning View bass
Summer Romance (anti-gravity Love Song) bass
Dig bass
Anna Molly bass
Calgone bass
Have You Ever bass
A Certain Shade Of Green ( Perfect ) bass
11am bass
Da Warmth bass
Privelege bass
Admiration bass
Out From Under bass
A Certain Shade Of Green (acoustic) bass
Here In My Room bass
Privilege bass


Guitar Tabs









All tabs are property and copyright of their owners. All tabs provided for educational purposes only. Privacy Policy, DMCA