Incubus

Megalomanic Bass Tabs



More from Incubus

Incubus Tabs
Incubus Chords
Incubus Bass
Incubus Lyrics




Tabbed By:Joey
Tuning:standard


INTRO (start at 0:51)
G|------------------------------------------------------------
D|--5~-555--555--5555555----------5~-555--555--5555555--------
A|------------------------------------------------------------
E|------------------------------------------------------------

G|------------------------------------------------------------
D|--5~-555--555--5555555----------5~-555--555--5555-----------
A|------------------------------------------------------------
E|------------------------------------------------------------

G|------------------------------------------------------------
D|------------------------------------------------------------
A|---------------------6-60--3-30-----------------6-60--3-30--
E|-15/--3-3-1-3---6-6--------------3-3-1-3---6-6--------------

G|------------------------------------------------------------|
D|------------------------------------------------------------|
A|------------------6-60--3-30-----------------6-60--3-11-\15-|
E|---3-3-1-3---6-6--------------3-3-1-3---6-6-----------------|

VERSE 1(x2)
G|------------------------------------------------------------
D|------------------------------------------------------------
A|------------------------------------------------------------
E|----3-3-1-3----8-8-6-8----11-11-10-11-----------------------
Second Time Only
G|-------------------------------------------|----------------|
D|-------------------------------------------|----------------|
A|-------------------------------------------|----------------|
E|---3-3-1-3----11-11-10-11----8-8-6-8-------|--1-3-1---------|

PRE-CHORUS
G|------------------------------------------------------------|
D|---------------------------------------3-5------------------|
A|-----------------------------------1-5----------------------|
E|---3-3-1-3--313-313-313-313-313-313-------------------------|




CHORUS 1
G|------------------------------------------------------------
D|------------------------------------------------------------
A|---------------------6-60--3-30-----------------6-60--3-30--
E|-15\--3-3-1-3---6-6--------------3-3-1-3---6-6--------------

G|------------------------------------------------------------|
D|------------------------------------------------------------|
A|------------------6-60--3-30-----------------6-60--3-30-----|
E|---3-3-1-3---6-6--------------3-3-1-3---6-6-----------------|

PRE-VERSE
G|------------------------------------------------------------|
D|------------------------------------------------------------|
A|------------------------------------------------------------|
E|---3-3-1-3~-/15~---11-11-10-11---8-6-3-1~-------------------|

VERSE 2(x2)
G|------------------------------------------------------------
D|------------------------------------------------------------
A|------------------------------------------------------------
E|--/3-3-1-3----8-8-6-8----11-11-10-11------------------------

G|------------------------------------------------------------|
D|------------------------------------------------------------|
A|------------------------------------------------------------|
E|---3-3-1-3----11-11-10-11----8-8-6-8-----1-3-1--------------|

PRE-CHORUS
G|------------------------------------------------------------|
D|---------------------------------------3-5------------------|
A|-----------------------------------1-5----------------------|
E|---3-3-1-3--313-313-313-313-313-313-------------------------|

CHORUS 2
G|------------------------------------------------------------
D|------------------------------------------------------------
A|------------------6-60--3-30-----------------6-60--3-30-----
E|---3-3-1-3---6-6--------------3-3-1-3---6-6-----------------

G|------------------------------------------------------------|
D|------------------------------------------------------------|
A|------------------6-60--3-30-----------------6-60--3--------|
E|---3-3-1-3---6-6--------------3-3-1-3---6-6-----------------|

Repeat last bar only
G|------------------------------------------------------------|\
D|------------------------------------------------------------| |
A|---/5-/8--10-8------------6-60--3---------------------------| |x4
E|---------------10-3--6-6------------------------------------|/

INTERLUDE
G|------------------------------------------------------------
D|------------------------------------3~3~--------------------
A|------3-0-3-5-5-5-5-3---------------------------------------
E|----------------------5-1-1-1-1-1-1-------------------------

G|------------------------------------------------------------
D|------------------------------------------------------------
A|-------3x--3-5-5-5-5-3--------------------------------------
E|-----------------------5-1-1-1-0-0-0-3-3-3------------------




G|------------------------------------------------------------
D|--------------------------------3~3~------------------------
A|------3-5-5-5-5-3-------------------------------------------
E|------------------5-1-1-1-1-1-1-----------------------------

G|------------------------------------------------------------
D|--------------------------3-3-3-2-2-2-----------------------
A|-------3x--3-5-5-5-5-3----------------3---------------------
E|-----------------------5----------------5-5-----------------

G|------------------------------------------------------------
D|---------------------------------3~3~-----------------------
A|-------3-5-5-5-5-3------------------------------------------
E|-------------------5-1-1-1-1-1-1----------------------------

G|------------------------------------------------------------
D|------------------------------------------------------------
A|-------3x--3-5-5-5-5-3--------------------------------------
E|-----------------------5-1-1-1-0-0-0-3-3-3------------------

G|------------------------------------------------------------
D|--------------------------------3~3~------------------------
A|------3-5-5-5-5-3-------------------------------------------
E|------------------5-1-1-1-1-1-1-----------------------------

G|-------------------------------------------7----------------
D|-------------------------3-3-3-5-3-/7-10-7------------------
A|-------3x--3-5-5-5-5-3--------------------------------------
E|-----------------------5------------------------------------

G|------------------------------------------------------------
D|------------------------------------------------------------
A|------3-5-5-5-5-3-------------------------------------------
E|------------------5-1-1-1-1-1-1-1-1-1-----------------------

G|------------------------------------------------------------
D|------------------------------------------------------------
A|------3-5-5-5-5-3-------------------------------------------
E|------------------5-1-1-1-1-1-0-0-0-0-----------------------

G|------------------------------------------------------------
D|------------------5-3-3-3-3-3-3-3-3-3-----------------------
A|------3-5-5-5-5-3-------------------------------------------
E|------------------------------------------------------------

G|------------------------------------------------------------|
D|------------------------------------------------------------|
A|------3-5-5-5-5-3-------------------------------------------|
E|------------------5-1-1-1-1-1-0-0-0-0-----------------------|

Repeat last bar only
G|------------------------------------------------------------|\
D|-----------2~---3~-3333333----------------------------------| |
A|------5~----------------------------------------------------| |x4
E|------------------------------------------------------------|/

OUTRO (LAST CHORUS)
G|------------------------------------------------------------
D|------------------------------------------------------------
A|------------------6-60--3-30-----------------6-60--3-30-----
E|---3-3-1-3---6-6--------------3-3-1-3---6-6-----------------




G|------------------------------------------------------------|
D|------------------------------------------------------------|
A|------------------6-60--3-30-----------------6-60--3--------|
E|---3-3-1-3---6-6--------------3-3-1-3---6-6-----------------|

Repeat last bar only Fourth Time Only
G|----------------------------------|-------------------------|\
D|----------------------------------|-------------------------| |
A|---/5-/8--10-8------------6-60--3-|-3~----------------------| |x4
E|---------------10-3--6-6----------|-------------------------|/

this is my favorite Incubus song



Get this song at amazon.com      Ebay     Ringtones Ringtones  


Learn to play: Songwriting, Piano, Harmonica, Guitar
More Incubus lyrics available at Muzikum

Related Incubus Bass Tabs

Redefine bass
A Kiss To Send Us Off bass
Make Yourself bass
The Warmth (4 String) bass
Make A Move bass
Clean bass
Made For A Tv Movie bass
Southern Girl bass
The Answer bass
Here In My Room bass
Talk Show On Mute bass
A Certain Shades Of Green [live] bass
Nowhere Fast bass
Privilege bass
Dig bass
A Crow Left Of The Murder bass
Megalomaniac bass
Certain Shade Of Green bass
Stellar( 4 And 5 String) bass
The Warmth bass


Guitar Tabs









All tabs are property and copyright of their owners. All tabs provided for educational purposes only. Privacy Policy, DMCA