Incubus

Megalomaniac Bass Tabs



More from Incubus

Incubus Tabs
Incubus Chords
Incubus Bass
Incubus Lyrics




Intro
G--------------------------------------------------
D------5------5------5------5----------------------
A--------------------------------------------------
E--------------------------------------------------

G--------------------------------------------------
D--------------------------------------------------
A--------------6-6--3-3----------------6-6-6--3----
E-3-3-1-3--6-6------------3-3-1-3--6-6-------------

1st Verse
G--------------------------------------------------
D--------------------------------------------------
A--------------------------------------------------
E-3-3-1-3---8-8-6-8---11-11-10-11------------------

G--------------------------------------------------
D--------------------------------------------------
A--------------------------------------------------
E-3-3-1-3---11-11-10-11---8-8-6-8---0-1-3----------

G--------------------------------------------------
D--------------------------------------------------
A--------------------------------------------------
E-3-3-1-3---11-11-10-11---8-8-6-8------------------

Pre-Chorus

G--------------------------------------------------
D--------------------------------------------------
A-------------------------------------------------3
E-3-3-1-3--3-1-3--3-1-3--3-1-3--3-1-3--3-1-3--1-3--

Chorus
G--------------------------------------------------
D--------------------------------------------------
A--------------6-6--3-3----------------6-6-6--3----
E-3-3-1-3--6-6------------3-3-1-3--6-6-------------

2nd Verse

G--------------------------------------------------
D------------3-5-----------------------------------
A--------------------------------------------------
E-3-3-1-3---------11-11-10-11---8-6-3-1------------

G--------------------------------------------------
D--------------------------------------------------
A--------------------------------------------------
E-3-3-1-3---8-8-6-8---11-11-10-11------------------

G--------------------------------------------------
D--------------------------------------------------
A--------------------------------------------------
E-3-3-1-3---11-11-10-11---8-8-6-8--0-1-3-----------


Pre-Chorus
G--------------------------------------------------
D--------------------------------------------------
A-------------------------------------------------3
E-3-3-1-3--3-1-3--3-1-3--3-1-3--3-1-3--3-1-3--1-3--

Chorus
G--------------------------------------------------
D--------------------------------------------------
A--------------6-6--3-3----------------6-6-6--3----
E-3-3-1-3--6-6------------3-3-1-3--6-6-------------

G--------------------------------------------------
D--------------------------------------------------
A-3-5-8-10-8----------6-6-3-3-5-8-10-8--------6-6-3
E------------10-3-6-6------------------10-3-6-6----

G--------------------------------------------------
D--------------------3-----------------------------
A-3-5-5-5-5-3----------3-5-5-5-5-3-----------------
E-------------5-1------------------5-1--0--0--0----

G--------------------------------------------------
D--------------------3---------------3-3-2-2-2-----
A-3-5-5-5-5-3----------3-5-5-5-5-3-------------3---
E-------------5-1------------------5-------------5-

G--------------------------------------------------
D--------------------3-----------------------------
A-3-5-5-5-5-3----------3-5-5-5-5-3-----------------
E-------------5-1------------------5-1---0--0--0---

G---------------------------------------------------7
D--------------------3---------------3-3-5-3/7-10-7--
A-3-5-5-5-5-3----------3-5-5-5-5-3-------------------
E-------------5-1------------------5-----------------

G--------------------------------------------------
D--------------------3-----------------------------
A-3-5-5-5-5-3----------3-5-5-5-5-3-----------------
E-------------5-1------------------5-1---0--0--0---

G--------------------------------------------------
D-------------5-3--3-3-3---------------------------
A-3-5-5-5-5-3-----------3-5-5-5-5-3----------------
E----------------------------------5-1---0--0--0---

G--------------------------------------------------
D----2--3-------2--3-------2--3--------2--3--------
A-5----------5----------5-----------5--------------
E--------------------------------------------------

G--------------8-8-5-5--------------8-8-8-5--------
D-5-5-3-5--8-8---------5-5-3-5--8-8----------------
A--------------------------------------------------
E--------------------------------------------------

Chorus

G--------------------------------------------------
D--------------------------------------------------
A--------------6-6--3-3----------------6-6-6--3----
E-3-3-1-3--6-6------------3-3-1-3--6-6-------------

G--------------------------------------------------
D--------------------------------------------------
A-3-5-8-10-8----------6-6-3-3-5-8-10-8--------6-6-3
E------------10-3-6-6------------------10-3-6-6----

G------------
D------------
A-3----------
E------------



Get this song at amazon.com      Ebay     Ringtones Ringtones  


Learn to play: Songwriting, Piano, Harmonica, Guitar
Also available at Muzikum: Incubus - Megalomaniac lyrics

Related Incubus Bass Tabs

Answer bass
Steller Make Yourself bass
Nice To Know You bass
Privelege bass
Aswethinkweiz bass
Glass bass
Have You Ever bass
Wish You Were Here bass
Wish You Where Here bass
Drive Live bass
Privilege bass
New Skin 4 Strng bass
When Incubus Attacks bass
Version bass
Admiration bass
New Skin bass
Make A Move bass
Circles bass
The Warmth bass
Under My Umbrella bass


Guitar Tabs









All tabs are property and copyright of their owners. All tabs provided for educational purposes only. Privacy Policy, DMCA