Incubus

Megalomaniac Perfect With All Fills Bass Tabs



More from Incubus

Incubus Tabs
Incubus Chords
Incubus Bass
Incubus Lyrics




Megalomaniac
A Crow Left of the Murder
Ben Kinney
Incubus

~ hold note
/ slide up
\ slide down
^ bend note
h hammer on
p pull off
x mute note

Intro (0:23)
G------------
D---3/5~-----
A------------
E------------

Verse 1 (0:37)
G-----------------------------
D-----------------------------
A-------------666-333---------
E---3-1-3-66x-----------------

G-----------------------------
D-----------------------------
A-------------666-33/16\1-----
E---3-1-3-66x-----------------

Main Riff (0:50)
G-----------------------------
D-----------------------------
A-----------------------------
E---3313--8868--11111011------

G-----------------------------
D-----------------------------
A-----------------------------
E---3313--8868--11111011-013--

G-----------------------------
D-----------------------------
A-----------------------------
E---3313^/11111011-8861-------

Pre Chorus
G-----------------------------------
D-----------------------------------
A-----------------------------------
E---3313-313-313-313-313-313-313366-

Verse 1 expanded

G-----------------------------
D-----------------------------
A-------------666-333---------
E---3-1-3-66x-----------------

G-----------------------------
D---3/5\3---5------111--------
A---------5------------333----
E--------------330------------

G-----------------------------
D---3/5\3---5-----111---------
A---------5-----------333/15^-
E-------------330-------------

Bridge
G-----------------------------
D-----------------------------
A---3-55553-------------------
E----------5-11111111---------

Alternate with a fill:
G-----------------------------
D-----------------------------
A---3-55553-------3311--------
E-----------511-00------------

G-----------------------------
D-----------------------------
A---3-5555-3-5/88-77----------
E--------------------88-55----

G-----------------------------
D-------------33333333--------
A---3-55553-------------------
E-----------1-----------------

G-------------------------5---7-----
D------------3-33h5p3-5/7---7-------
A---3-555535------------------------
E-----------------------------------

G---2----5------7-------------
D---0----3------5-------------
A-----------------------------
E-----------------------------

G-------------------------------------
D-------------------------------------
A-------------------1818181815151315--
E---1515131515181818------------------



Get this song at amazon.com      Ebay     Ringtones Ringtones  


Learn to play: Songwriting, Piano, Harmonica, Guitar
More Incubus lyrics available at Muzikum

Related Incubus Bass Tabs

Favorite Things bass
A Certain Shade Of Green ( Perfect ) bass
Megalomanic bass
Here In My Room bass
Science bass
Are You In bass
New Skin 4 Strng bass
Azwethinkweiz bass
Answer bass
Pardon Me (4 String) bass
Glass bass
Nice To Know You (4 String) bass
Under My Umbrella bass
Version bass
Privelege bass
Nebula bass
Aqueous Transmission (Version 3) bass
Wish You Were Here (4 String) bass
Wish You Where Here bass
Deep Inside bass


Guitar Tabs









All tabs are property and copyright of their owners. All tabs provided for educational purposes only. Privacy Policy, DMCA