Incubus

Medium Bass Tabs



More from Incubus

Incubus Tabs
Incubus Chords
Incubus Bass
Incubus Lyrics



Song:Medium
Band:Incubus
album:fungus amongus
Bassist:Dirk Lance
tabber:Justanothernimrod

intro + chorus
| s s s s s s s s s s s s s s s s
G --------6----------------------------------------------------------------------
D -----5-----3--5--6-----3--5--------6--3--5--3----------------------------------
A --3-----------------5-----------5--------------3-------------------------------
E -----------------------------3-------------------------------------------------

>

verse
| s s s s s s s s s s
G --------------------------------
D --------------------------------
A --------------------------------
E --3--3--3--3--6--6--3--6--6--3--

Taken from The BassMasta -- http://www.tabs-database.com



Get this song at amazon.com      Ebay     Ringtones Ringtones  


Learn to play: Songwriting, Piano, Harmonica, Guitar
Also available at Muzikum: Incubus - Medium lyrics

Related Incubus Bass Tabs

Crowded Elevator (5 String) bass
Hilikus bass
Trouble In 421 bass
Drive Live bass
Aswethinkweiz bass
The Warmth bass
Glass-6 String bass
Megalomanic bass
Sink Beneath The Line bass
Megolomaniac bass
Anna Molly bass
You Will Be A Hot Dancer bass
Privelege bass
Anti-gravity bass
Deep Inside bass
Here In My Room bass
Under My Umbrella bass
11 Am Tab bass
Crowded Elevator bass
Have You Ever bass


Guitar Tabs









All tabs are property and copyright of their owners. All tabs provided for educational purposes only. Privacy Policy, DMCA