Incubus

Make Yourself (4 String) Bass Tabs



More from Incubus

Incubus Tabs
Incubus Chords
Incubus Bass
Incubus Lyrics



BAND:INCUBUS
SONG:MAKE YOURSELF
ALBUM:MAKE YOURSELF
BASSIST:DIRK LANCE

Tabbed by incubuSCIENCE

Now, i know Dirk uses a 5-string, but all i got is a 4-string,
so i know some notes should be lower but this is the 4-string way.

VERSE
G----------------------------------------------------------------
D----------------------------------------------------------------
A-2----------1112---------111112---------1112---------11111------
E---3-3--3-3------3-3-3-3--------3-3-3-3------3-3-3-3------------

NOTE:Make sure you play the 1st fret two more times every
other time, it is crucial for timing.

BRIDGE
G----------------------------------------------------------------
D----------------------------------------------------------------
A-5-5-5-5-1-1-1-1------------------------------------------------
E-----------------3-3-3-3-3-3-3-3--------------------------------

Verse X 1

CHORUS
G----------------------------------------------------------------
D----------------------------------------------------------------
A-5-5-5-5-1-1-1-1-----------------5-5-5-5-1-1-1-1----------------
E-----------------3-3-3-3-3-3-3-3-----------------3-3-3-3-1-1-1-1

G----------------------------------------------------------------
D----------------------------------------------------------------
A-5-5-5-5-1-1-1-1---------3-3-3-3-5-5-5-5-1-1-1-1----------------
E-----------------3-3-3-3-------------------------3-3-3-3-1-1-1-1

G------
D-9/0--
A------
E------

THIRD VERSE
G-14--16--12/6------
D-------------------
A-------------------
E---------------6--- X 4

G-14--16--12/6------
D-------------------
A-------------------
E--------------666-- X 3

VARIATION OF VERSE
G----------------------------------------------------------------
D----------------------------------------------------------------
A-2---------1-1-2---------1-1-2---------1-1-2---------11111------
E---3-3-3-3-------3-3-3-3-------3-3-3-3-------3-3-3-3------------

Chorus X 1

VARIATION OF VERSE
G----------------------------------------------------------------
D----------------------------------------------------------------
A-2---------11111-2---------11111-2---------11111-2---------11111
E---3-3-3-3---------3-3-3-3---------3-3-3-3---------3-3-3-3------

There it is. That is the entire song in the exact order that
you play it in. This is 100% accurate for a 4-string bass.
Hope this is very helpful. PLEASE RATE THIS TAB!!!!!!!!!!!!
-GORDS

Taken from The BassMasta -- http://www.tabs-database.com



Get this song at amazon.com      Ebay     Ringtones Ringtones  


Learn to play: Songwriting, Piano, Harmonica, Guitar
More Incubus lyrics available at Muzikum

Related Incubus Bass Tabs

Consequence bass
Adolescents bass
Summer Romance (anti-gravity Love Song) bass
You Will Be A Hot Dancer bass
Pardon Me (4 String) bass
Echo bass
Version bass
A Certain Shade Of Green bass
11am bass
Pardon Me bass
Redefine (5 String) bass
Clean bass
Glass-6 String bass
A Certain Shade Of Green (acoustic) bass
New Skin 4 String bass
Wish You Were Here bass
Glass bass
Agoraphobia bass
A Crow Left Of The Murder bass
I Wish You Were Here bass


Guitar Tabs









All tabs are property and copyright of their owners. All tabs provided for educational purposes only. Privacy Policy, DMCA