Incubus

Made For Tv Tabs



More from Incubus

Incubus Tabs
Incubus Chords
Incubus Bass
Incubus Lyrics

Tuning: Low to High - E, A, d, g, b, e

Intro/Verse (slight distortion)
----------------------------------------
----------------------------------------
------0-----4------------0-----4--------
----2---2-/---5---5----2---2-/---5---0--
--3-------/-----6----3-------/-----1----
----------------------------------------Repeat throughout

Chorus (heavy thick distortion and fuzz)
--------------------------------
--------------------------------
-----------------5------7--7-7--
---5------2------5------7--8-8--
---5-(x8)-2-(x8)-3-(x8)-5--8-8--
---3------0------3------5--6-6--Every once in a while bend the A#/Bb chord.

Interlude
---------------------------------------------------------------------------
---------------------------------------------------------------------------
---------------------------------------------------------------------------
--------------------------5--------------------------5--5--5--(5)----------
--3^(4)(3)--1-------1---1-3--3^(4)(3)--1-------1---1-4--4--4--(4)-(x3)-----
--------------3-0-3---3------------------3-0-3---3---5--5--5--(5)----------
^*Last time only*
Outro (clean)
-------------------------6---
---------0----3----------6---
---4-----1----5---7-7----7---
---5-----2----5---7-7----8---
---5-----2----3---5-5--8-8---
---3-----0----3--------6-6---
Some palmmuted parts and differentiated picking techniques. Nothing serious or difficult, though. Make sure you
rakepick the A#/Bb chord.
Get this song at amazon.com      Ebay     Ringtones Ringtones  


Learn to play: Songwriting, Piano, Harmonica, Guitar
More Incubus lyrics available at Muzikum

Related Incubus Tabs

Pardon Me Crd tabs
Psychopsilocybin tabs
Consequence tabs
Favorite Things tabs
Rogues Bass tabs
Anti - Gravity Love Song Acoustic tabs
Clean2 tabs
11 A. M. tabs
Adolescents tabs
Like A Virgin tabs
Acqueous Transmission tabs
Blood On The Ground tabs
Make A Move tabs
Light Grenades tabs
Warning tabs
Redefine tabs
Isadore tabs
Make Yourself Acoustic tabs
Talk Show On Mute tabs
Consequence (Version 2) tabs


Guitar Tabs









All tabs are property and copyright of their owners. All tabs provided for educational purposes only. Privacy Policy, DMCA