Incubus

Made For Tv Movie Bass Tabs



More from Incubus

Incubus Tabs
Incubus Chords
Incubus Bass
Incubus Lyrics




Incubus
Made for TV movie
A Crow Left of the Murder


Verse
G| ---------------------------------
D| ---------1-1-1-1---------1-1-----
A| -3-3-3-3---------3-3-3-3-----1-1- x4
E| ---------------------------------

Chorus x2
G| -----------------
D| -----------------
A| -----------------
E| -3-3-3-3-3-3-5-5-

G| ----------------
D| ----------------
A| ---------------2
E| -0-0-0-0-0-2-3--

G| ----------------------
D| ---------------0-0----
A| -3-3-3-3-3-3-3-----1-1
E| ----------------------


Verse x6
G| ------------------------------------
D| ---------1-1-1-1---------1-1--------
A| -3-3-3-3---------3-3-3-3-----1-1----
E| ------------------------------------

Chorus x4
G| -----------------
D| -----------------
A| -----------------
E| -3-3-3-3-3-3-5-5-

G| ----------------
D| ----------------
A| ---------------2
E| -0-0-0-0-0-2-3--

G| ----------------------
D| ---------------0-0----
A| -3-3-3-3-3-3-3-----1-1
E| ----------------------

Bridge x4

G|----------------------------------------------
D|----------------------------------------------
A|--3--1--------1---3-3-1------1----------------
E|--------3--0-3-3-0------3-0-3-3-0--5-5-5------



Get this song at amazon.com      Ebay     Ringtones Ringtones  


Learn to play: Songwriting, Piano, Harmonica, Guitar
Also available at Muzikum: Incubus - Made For Tv Movie lyrics

Related Incubus Bass Tabs

Southern Girl bass
Just A Phase bass
Drive bass
Out From Under bass
Wish You Were Here bass
Calgone bass
Summer Romance (anti-gravity) bass
Are You In bass
Aqueous Transmission (Version 3) bass
Monuments And Melodies bass
Summer Romance (anti-gravity Love Song) bass
Clean bass
New Skin 4 Strng bass
Science bass
Wish You Where Here bass
The Warmth (4 String) bass
Megalomaniac bass
Pantomime bass
Megelomaniac bass
Megalomanic bass


Guitar Tabs









All tabs are property and copyright of their owners. All tabs provided for educational purposes only. Privacy Policy, DMCA