Incubus

Love Hurts Tabs



More from Incubus

Incubus Tabs
Incubus Chords
Incubus Bass
Incubus Lyrics



Incubus - Love hurts

Light Grenades

Tabbed by: Tom Lavery

email: webmaster at tabs-database.com.com

AIM: railmaster123



Another hit off the album, enjoy!



Standard Tuning (EADGbe)



Intro/Chorus: [light distortion]



e|---------------------------------------------------------------5---5-55/-8-----8--8-8--|

b|---0--0--0------------7---7--8--5----5------0--0--0------------5---5-55/-8-----8--8-8--|

G|------0---------7-----7---7--7--5----5---------0---------7-----6---6-66/-9-----9--9-9--|

D|------5-----------0---7---------5------5-------5-----------0---7---7-77/-10----10-1010-|

A|-7---(7)------5--(5)--5-5-------3--3------7---(7)------5--(5)--7-7-7-55/-10-10-10-1010-|

E|------------7----------------------------------------7---------5-5-5-55/-8--8--8--8-8--|



Verse:



tonight we drink to youth

and holding fast the truth

don't want to lose what i had as a boy

my heart still has a beat

but love is now a feat

as common as a cold day in L.A.





Prechorus:





Chords:



Amin Cmaj Dmaj

-5- -8-- -10-|

-5- -8-- -10-|

-5- -9-- -11-| {I realize you can play these chords elsewhere, this is where

-7- -10- -12-| they are played in the song!}

-7- -10- -12-|

-5- -8-- -10-|



Amin

sometimes when I'm alone I wonder



Cmaj

is there a spell that I am under



Amin Cmaj Dmaj

keeping me from seeing the real thing





Chorus: {Same as intro}



love hurts

but sometimes it's a good hurt

and it feels like I'm alive

love sings

when it transcends the bad things

out of heartache, try me

cause without love I won't survive



Verse:



tethered and abused

stand naked and accused

should I surface, this one man submarine

I only want the truth

so tonight we drink to youth

I never lose what I had as a boy





Prechourus





Chorus/bridge



Chorus: [Acoustic]



Emin Bmin

love hurts



Dmaj Amin

but sometimes it's a good hurt



Emin Bmin Amaj Cmaj

and it feels like I'm alive





-Tom LaveryAdded by tabs-database.com and our distinguished partners
Get this song at amazon.com      Ebay     Ringtones Ringtones  


Learn to play: Songwriting, Piano, Harmonica, Guitar
Also available at Muzikum: Incubus - Love hurts lyrics

Related Incubus Tabs

Stellar tabs
Version tabs
Trouble In 4 tabs
In The Company Of Wolves tabs
11am 3 tabs
Pardon Me tabs
Shaft tabs
Nice To Know You tabs
Glass tabs
Freedom tabs
Pardon Me Intro tabs
Still Not A Player tabs
Incubus Science tabs
Drive4 tabs
You Are Stellar tabs
Idiot Box tabs
Hilikus Bass tabs
Echo (Version 2) tabs
Magic Medicine tabs
Talk Show On Mute Solo tabs


Guitar Tabs









All tabs are property and copyright of their owners. All tabs provided for educational purposes only. Privacy Policy, DMCA