Incubus

Like A Virgin Cover Tabs



More from Incubus

Incubus Tabs
Incubus Chords
Incubus Bass
Incubus Lyrics



Author/Artist: Incubus
Title: Like a Virgin
Transcribed by: Ben Bradley y Chase B.
Email: stellarola@aol.com

This is an acoustic cover incubus did of Madonna's Like a Virgin

P.M.......................................................................

--------------------------|----------------------------------|-----------------
--------------------------|----------------------------------|-----------------
--------------------------|----------------------------------|-----------------
--------------------------|----------------------------------|-----------------
---0-------0-0------------|---2-0----2-2-0---0---------------|-0-0-------------
-----2-0-------2-0-2------|-------2--------2-----------------|-----2-0---------
I made it through... I didnt know how lost I was.... I was beat....

-2---------|-2---------|-2----------|-2------------|-0-------------------------
-3---------|-2---------|-3----------|-2------------|-0-------------------------
-4---------|-2---------|-4----------|-2------------|-1-------------------------
-4---------|-4---------|-4----------|-4------------|-2-------------------------
-2---------|-4---------|-2----------|-4------------|-2-------------------------
-2---------|-2---------|-2----------|-2------------|-0-------------------------
But you made me feel...

(When you listen to it, you'll know the chord pace. ;-)


Get this song at amazon.com      Ebay     Ringtones Ringtones  


Learn to play: Songwriting, Piano, Harmonica, Guitar
More Incubus lyrics available at Muzikum

Related Incubus Tabs

Here In My Room tabs
Calgone Btab tabs
Under My Umbrella tabs
11am tabs
Turning Japanese tabs
Sink Beneath The Line tabs
Nebula tabs
Drive (Version 2) tabs
Are You In Bass tabs
Summer Romance Bass tabs
Drive6 tabs
Pendulous Threads tabs
Stellar tabs
A Crow Left Of The Murder (acoustic) tabs
Calogne tabs
Look Alive tabs
Pardon Me tabs
Rogues Bass tabs
Drive5 tabs
Drive (Version 3) tabs


Guitar Tabs









All tabs are property and copyright of their owners. All tabs provided for educational purposes only. Privacy Policy, DMCA