Incubus

Light Grenades Tabs



More from Incubus

Incubus Tabs
Incubus Chords
Incubus Bass
Incubus Lyrics



Incubus Light Grenades



A Kiss to Send Us Off

Standard Tuning





Intro/Bridge

|-------------|

|-------------|

|---11---12---|

|---12---12---|

|--(10)-(10)--|

|-------------|



Chorus

|-----------------|---------------------|

|-----------------|---------------------|

|-----------------|-5-5-5-5-5-x-x-8-8-8-|

|-5-5-/-8-\-2-2-2-|-5-5-5-5-5-x-x-8-8-8-|

|-5-5-/-8-\-2-2-2-|-3-3-3-3-3-x-x-6-6-6-|

|-3-3-/-6-\-0-0-0-|---------------------|



Verse

|----------------------------|

|----------------------------|

|-0---0---0---0---0---0---0--|

|-12--13--12--10--12\-1---3--|

|----------------------------|

|----------------------------|

8 4 1 1 1 13 3 (# of times to play note)



|-----------------------------------|

|-----------------------------------|

|-0---0---0---0---0---0--0-0-0-0-0--|

|-12--13--12--10--12\-1--7-7-7b8r7--|

|-----------------------------------|

|-----------------------------------|

8 4 1 1 1 8



|-----------------|---------------------|

|-----------------|---------------------|

|-----------------|-5-5-5-5-5-x-x-8-8-8-|

|-5-5-/-8-\-2-2-2-|-5-5-5-5-5-x-x-8-8-8-|

|-5-5-/-8-\-2-2-2-|-3-3-3-3-3-x-x-6-6-6-|

|-3-3-/-6-\-0-0-0-|---------------------|



|----------------------------|

|----------------------------|

|-0---0---0---0---0---0---0--|

|-12--13--12--10--12\-1---3--|

|----------------------------|

|----------------------------|

8 4 1 1 1 13 3



|-----------------------------------|

|-----------------------------------|

|-0---0---0---0---0---0--0----------|

|-12--13--12--10--12\-1--7-7-7b8r7--|

|-----------------------------------|

|-----------------------------------|

8 4 1 1 1 8



|-----------------|---------------------|

|-----------------|---------------------|

|-----------------|-5-5-5-5-5-x-x-8-8-8-|

|-5-5-/-8-\-2-2-2-|-5-5-5-5-5-x-x-8-8-8-|

|-5-5-/-8-\-2-2-2-|-3-3-3-3-3-x-x-6-6-6-|

|-3-3-/-6-\-0-0-0-|---------------------|



|-----------------|---------------------|

|-----------------|---------------------|

|-----------------|-5-5-5-5-5-x-x-8-8-8-|

|-5-5-/-8-\-2-2-2-|-5-5-5-5-5-x-x-8-8-8-|

|-5-5-/-8-\-2-2-2-|-3-3-3-3-3-x-x-6-6-6-|

|-3-3-/-6-\-0-0-0-|---------------------|



Breakdown

|-------------|

|-------------|

|---11---12---|

|---12---12---|

|--(10)-(10)--|

|-------------| (2nd Guitar

| comes in)

|-------------|

|-------------|

|-------------|

|----4---5----|

|----5---5----|

|----3---3----|



|-----------------|---------------------|

|-----------------|---------------------|

|-----------------|-5-5-5-5-5-x-x-8-8-8-|

|-5-5-/-8-\-2-2-2-|-5-5-5-5-5-x-x-8-8-8-|

|-5-5-/-8-\-2-2-2-|-3-3-3-3-3-x-x-6-6-6-|

|-3-3-/-6-\-0-0-0-|---------------------|





Dig



Standard Tuning (EADGbe)



Intro: [delay/light distortion]



e|---------16-----------------16-----------------16--------------------16-----|

b|----16------16---16----16------16---16----14------14----14-----14-------14--|

G|----------------------------------------------------------------------------|

D|-14---14------14-----14--14------14----16---16------16----------------------|

A|------------------------------------------------------------16----16--------|

E|----------------------------------------------------------------------------|



Also plays this in there... listen carefully



-------18p16-----|

---14--------14--|

-----------------|

-----------------|

-16--16----------|

-----------------|



Verse:

Chords



Emaj F#maj C#min

-0-- -2-- -4--|

-0-- -2-- -5--|

-1-- -3-- -6--|

-2-- -4-- -6--|

-2-- -4-- -4--|

-0-- -2-- ----|



We all have a weakness

But some of ours are easier to identify. Look me in the eye

& ask for forgiveness;

we'll make a pact to never speak that word again.

Yes, you are my friend.

We all have something that digs us,

at least we dig each other.

So when weakness turns my ego up

I know you'll count on the me from yesterday.





Chorus:

Lead guitar

e|------------------------------------------------/11---------11------9-9h11-11--|

b|----11--------11-------11---11-11-----11---11----------------------------------|

g|-13-----13-13--------8----8-------8--------------------------------------------|

D|-------------------------------------------------------9-------9---------------|

A|---------------------------------------------------------11--------------------|

E|-------------------------------------------------------------------------------|



------------------------------------------9--------------------------------------|

----11--------11-------11---11-11------------------------------------------------|

-13-----13-13--------8----8-------8----------11----11----------------------------|

--------------------------------------11-----------11----------------------------|

---------------------------------------------------9---11-11-11\-9-9-9-9---------|

---------------------------------------------------------------------------------|



----------------------------------------------------12---12-11---9---------------|

----11--------11-------11---11-11-----11~~~~11--12-------------------------------|

-13-----13-13--------8----8-------8--------------------9-------9-----------------|

---------------------------------------------------------------------------------|

---------------------------------------------------------------------------------|

---------------------------------------------------------------------------------|



-----------------------------------------14------14------14~~~~------------------|

------11--------11-----11---11-11-----12-----12-----12---12~~~~------------------|

-13-----13-13--------8----8-------8----------------------11~~~~------------------|

---------------------------------------------------------------------------------|

---------------------------------------------------------------------------------|

---------------------------------------------------------------------------------|



Chords: (play in order)



Emaj Bmaj F#maj C#min Emaj Bmaj Emaj F#maj

-0-- -2-- -2-- -4-- -0-- -2-- -0-- -2--

-0-- -4-- -2-- -5-- -0-- -4-- -0-- -2--

-1-- -4-- -3-- -6-- -1-- -4-- -1-- -3--

-2-- -4-- -4-- -6-- -2-- -4-- -2-- -4--

-2-- -2-- -4-- -4-- -2-- -2-- -2-- -4--

-0-- ---- -2-- ---- -0-- ---- -0-- -2--



If I turn into another

dig me up from under what is covering

the better part of me.

Sing this song

remind me that we'll always have each other

when everything else is gone.





Verse:

We all have a sickness

that cleverly attaches & multiplies

No matter how we try.

We all have someone that digs at us,

at least we dig each other.

So when sickness turns my ego up

I know you'll act as a clever medicine.





Chorus:

If I turn into another

dig me up from under what is covering

The better part of me.

Sing this song!

Remind me that we'll always have each other

when everything else is gone.

OK, each other when everything else is gone.



Anna Molly

Standard Tuning



* = pinch harm.



Gtr I (fast strumming pattern)

Intro/Chorus

|--8----6----4------------------8---6----4----1----3-|

|--8----8----4------------------8---8----4----1----3-|

|--8----8----5---8/-10-10-10----8---8----5----1----4-|

|-10----8----6---8/-10-10-10---10---8----6----3----3-|

|-10----6----6---6/--8--8--8---10---6----6----3----5-|

|--8---------4------------------8--------4----1----3-|



Gtr II (keyboard tabbed for gtr)

TP TP TP TP TP TP TP

|------------------------------------|

|---8----11--8----11--8-----11--8----|

|------------------------------------|

|------------------------------------|2nd time

|------------------------------------|

|------------------------------------|



Prechorus

|-----------------------------------|

|-----------------------------------|

|--8--8--8--8--8\-7-----------------|

|-10-10-10-10-10\-8---8--8--8--8\-5-|

|--------------------10-10-10-10\-6-|

|-----------------------------------|



|--------------------------------------|

|--------------------------------------|

|--8--8--8--8--8--8--------------------|

|-10-10-10--8--8--8---8--8--8\-5--5-5--|

|--------------------10-10-10\-6--6-6--|

|--------------------------------------|



Verse * *

|-----------------10---10-------8\---|

|---------11---------8---------------|

|----8-------8-----------------------|

|-10---10------10----------6-6-------|

|------------------------------------|

|------------------------------------|

{------------PM--------------------|

* *

|-----------------10---10------10\---|

|---------11---------8---------------|

|----8-------8-----------------------|

|-10---10------10--------------------|

|-------------------------10-10------|

|------------------------------------|

{------------PM--------------------|



|--8----6----4------------------8---6----4----1----3-|

|--8----8----4------------------8---8----4----1----3-|

|--8----8----5---8/-10-10-10----8---8----5----1----4-|

|-10----8----6---8/-10-10-10---10---8----6----3----3-|

|-10----6----6---6/--8--8--8---10---6----6----3----5-|

|--8---------4------------------8--------4----1----3-|



|-----------------------------------|

|-----------------------------------|

|--8--8--8--8--8\-7-----------------|

|-10-10-10-10-10\-8---8--8--8--8\-5-|

|--------------------10-10-10-10\-6-|

|-----------------------------------|



|--------------------------------------|

|--------------------------------------|

|--8--8--8--8--8--8--------------------|

|-10-10-10--8--8--8---8--8--8\-5--5-5--|

|--------------------10-10-10\-6--6-6--|

|--------------------------------------|

* *

|-----------------10---10-------8\---|

|---------11---------8---------------|

|----8-------8-----------------------|

|-10---10------10----------6-6-------|

|------------------------------------|

|------------------------------------|

{------------PM--------------------| play 2nd time

* *

|-----------------10---10------10\---|

|---------11---------8---------------|

|----8-------8-----------------------|

|-10---10------10--------------------|

|-------------------------10-10------|

|------------------------------------|

{------------PM--------------------|



Bridge

|------------------------------------------------------|

|------------------------------------------------------|

|-------------------------x-x-5--7b8-5--7b8r7-5--7b8-5~|

|------------------------------------------------------|

|------------------------------------------------------|

|-4--x6\--3--x3--4-x6\--3------------------------------|



Breakdown

|------------------------------------|

|------------------------------10-10-|

|------------------------------10-10-|

|----------5-5-----------5-x-x-10-10-|

|-3-1-1-3--6-6--3-1-1-3--6-x-x-8--8--|

|------------------------------------|



|----------------------------|

|---------------------9--9---|

|--------------------10-10---|

|----------5-5-------10-10---|

|-3-1-1-3--6-6--3/5---8--8---|

|---------------4/6----------|



|--8----6----4------------------8---6----4----1----3-|

|--8----8----4------------------8---8----4----1----3-|

|--8----8----5---8/-10-10-10----8---8----5----1----4-|

|-10----8----6---8/-10-10-10---10---8----6----3----3-|

|-10----6----6---6/--8--8--8---10---6----6----3----5-|

|--8---------4------------------8--------4----1----3-|



|-----------------------------------|

|-----------------------------------|

|--8--8--8--8--8\-7-----------------|

|-10-10-10-10-10\-8---8--8--8--8\-5-|

|--------------------10-10-10-10\-6-|

|-----------------------------------|



|--------------------------------------|

|--------------------------------------|

|--8--8--8--8--8--8--------------------|

|-10-10-10--8--8--8---8--8--8\-5--5-5--|

|--------------------10-10-10\-6--6-6--|

|--------------------------------------|



Love hurts



Light Grenades



Standard Tuning (EADGbe)



Intro/Chorus: [light distortion]



e|---------------------------------------------------------------5---5-55/-8-----8--8-8--|

b|---0--0--0------------7---7--8--5----5------0--0--0------------5---5-55/-8-----8--8-8--|

G|------0---------7-----7---7--7--5----5---------0---------7-----6---6-66/-9-----9--9-9--|

D|------5-----------0---7---------5------5-------5-----------0---7---7-77/-10----10-1010-|

A|-7---(7)------5--(5)--5-5-------3--3------7---(7)------5--(5)--7-7-7-55/-10-10-10-1010-|

E|------------7----------------------------------------7---------5-5-5-55/-8--8--8--8-8--|



Verse:



tonight we drink to youth

and holding fast the truth

don't want to lose what i had as a boy

my heart still has a beat

but love is now a feat

as common as a cold day in L.A.





Prechorus:





Chords:



Amin Cmaj Dmaj

-5- -8-- -10-|

-5- -8-- -10-|

-5- -9-- -11-| {I realize you can play these chords elsewhere, this is where

-7- -10- -12-| they are played in the song!}

-7- -10- -12-|

-5- -8-- -10-|



Amin

sometimes when I'm alone I wonder



Cmaj

is there a spell that I am under



Amin Cmaj Dmaj

keeping me from seeing the real thing





Chorus: {Same as intro}



love hurts

but sometimes it's a good hurt

and it feels like I'm alive

love sings

when it transcends the bad things

out of heartache, try me

cause without love I won't survive



Verse:



tethered and abused

stand naked and accused

should I surface, this one man submarine

I only want the truth

so tonight we drink to youth

I never lose what I had as a boy





Prechourus





Chorus/bridge



Chorus: [Acoustic]



Emin Bmin

love hurts



Dmaj Amin

but sometimes it's a good hurt



Emin Bmin Amaj Cmaj

and it feels like I'm alive





---------------------------------------------------------------------------------------------------------|

Love Hurts V.2



Tuning: Standard



*This is the acoustic version. The CD version is played differently*



Intro:

Slight distortion and reverb

e|--------------------------------------|--------------------------------|

B|---8----------------------------------|---8----------------------------|

G|---0-------11-----11-11-12---9--9--10-|---0-------11-----6-6-6\-9--9---|

D|--9-9------x------x--x--x----x--x--x--|--9-9------x------x-x-x--x--x---|2x

A|-7-------12--12---12-12-12---10-10-10-|-7-------12--12---7-7-7\-10-10--|

E|-------10---------10-10-10---8--8--8--|-------10---------5-5-5\-8--8---|





Verse 1:

e|--------------------------------------|--------------------------------|

B|---8----------------------------------|---8----------------------------|

G|---0-------11-----11-11-12---9--9--10-|---0-------11-----6-6-6\-9--9---|

D|--9-9-------------x--x--x----x--x--x--|--9-9-------------x-x-x--x--x---|4x

A|-7-------12--12---12-12-12---10-10-10-|-7-------12--12---7-7-7\-10-10--|

E|-------10---------10-10-10---8--8--8--|-------10---------5-5-5\-8--8---|





Interlude:

e|--------------------|----------------------|-------------------------|

B|--7-7-7-7-7-7-7-7-7-|----------------------|-------------------------|

G|--x-x-x-x-x-x-x-x-x-|-11-11-11-11-11-11-11-|-9--9--9--9--9--9--9--9--|

D|--9-9-9-9-9-9-9-9-9-|-x--x--x--x--x--x--x--|-x--x--x--x--x--x--x--x--|

A|--7-7-7-7-7-7-7-7-7-|-12-12-12-12-12-12-12-|-10-10-10-10-10-10-10-10-|

E|--------------------|-10-10-10-10-10-10-10-|-8--8--8--8--8--8--8--8--|



e|----------------------------|

B|----------------------------|

G|-11-11-11-11-11-11-11-11-11-| (figure out strumming pattern and frequency.

D|-x--x--x--x--x--x--x--x--x--| These chords may or may not be accurate)

A|-12-12-12-12-12-12-12-12-12-|

E|-10-10-10-10-10-10-10-10-10-|



Chorus:

e|--------------------------------------|--------------------------------|

B|---8----------------------------------|---8----------------------------|

G|---0-------11-----11-11-12---9--9--10-|---0-------11-----6-6-6\-9--9---|

D|--9-9-------------x--x--x----x--x--x--|--9-9-------------x-x-x--x--x---|2x

A|-7-------12--12---12-12-12---10-10-10-|-7-------12--12---7-7-7\-10-10--|

E|-------10---------10-10-10---8--8--8--|-------10---------5-5-5\-8--8---|





Verse 2:

e|--------------------------------------|--------------------------------|

B|---8----------------------------------|---8----------------------------|

G|---0-------11-----11-11-12---9--9--10-|---0-------11-----6-6-6\-9--9---|

D|--9-9-------------x--x--x----x--x--x--|--9-9-------------x-x-x--x--x---|4x

A|-7-------12--12---12-12-12---10-10-10-|-7-------12--12---7-7-7\-10-10--|

E|-------10---------10-10-10---8--8--8--|-------10---------5-5-5\-8--8---|





Chorus:

e|--------------------------------------|--------------------------------|

B|---8----------------------------------|---8----------------------------|

G|---0-------11-----11-11-12---9--9--10-|---0-------11-----6-6-6\-9--9---|

D|--9-9-------------x--x--x----x--x--x--|--9-9-------------x-x-x--x--x---|2x

A|-7-------12--12---12-12-12---10-10-10-|-7-------12--12---7-7-7\-10-10--|

E|-------10---------10-10-10---8--8--8--|-------10---------5-5-5\-8--8---|





Solo:(with interlude chords played behind)



e|----------10----10----10----12---12----12-12---12-----------------|

B|-11~-12-12---12----12---------15---15-------15--------------------|

G|--------------------------------------------------12~-------------|

D|------------------------------------------------------------------|

A|------------------------------------------------------------------|

E|------------------------------------------------------------------|



e|----------10----10----10---12---12---15-15-15p12------------------|

B|-11~-12-12---12----12--------15---15-------------12---------------|

G|---------------------------------------------------12-------------|

D|------------------------------------------------------------------|

A|------------------------------------------------------------------|

E|------------------------------------------------------------------|



e|------------------------------------------------------------------|

B|------------------------------------------------------------------|

G|---------------------12-------------------------------------------|

D|-14---14/12---12\14-----14----14/12---12\14-----------------12-12-|

A|--------------------------------------------14--14/12-12\14-------|

E|------------------------------------------------------------------|



e|--------------------------------------------------------------------------------|

B|--------------------------------------------------------------------------------|

G|---------Added by tabs-database.com and our distinguished partners
Get this song at amazon.com      Ebay     Ringtones Ringtones  


Learn to play: Songwriting, Piano, Harmonica, Guitar
Also available at Muzikum: Incubus - Light grenades lyrics

Related Incubus Tabs

Consequence (Version 2) tabs
Make A Move tabs
Consequence tabs
Stellar tabs
Pantomime tabs
Drive5 tabs
Are You In Solo tabs
Drive Live tabs
Trouble In 4 tabs
11 Am (Version 2) tabs
Glass tabs
A Certain Shade Of Green Acoustic Solo tabs
Acqueous Transmission tabs
Drive3 Crd tabs
Certain Shade Of Green Acoustic tabs
11 Am2 tabs
A Certain Shade Of Green (acoustic) tabs
A Crow Left Of The Murder tabs
Privilege tabs
ARE YOU IN? tabs


Guitar Tabs









All tabs are property and copyright of their owners. All tabs provided for educational purposes only. Privacy Policy, DMCA