Incubus

Just A Phase Bass Tabs



More from Incubus

Incubus Tabs
Incubus Chords
Incubus Bass
Incubus Lyrics




Title: just a phase
Artist: incubus
Album: morning view
Tabbed by: Furious4String

Tuning: Standard (E A D G)

bass comes in at 0:44

Intro
G||------------------|--------------------------|
D||----7/129----5/7/9|---5/7/9------------------|
A||-7----------------|----------7/--------------|
E||-0---------7------|-7------------------------|
Do that for how very many time you need to

Intro to verse
G||--------------------------------------------------------------------|
D||--------------------------------------------------------------------|
A||-7-7-7-7-7-7--------------------------------------------------------|
E||-------------7-7-7-7-7-7-0-0-0-0-0-0-3-3-3-3-3-3-3-3-3-2-2-2-2-2-2-2|

Verse
G||-----------------6-4------|
D||---------(2)---------6-4-2|
A||--------------4-----------|
E||-0-r-3-r--0---------------|

\\\"who you?\\\" (2:49)
G|---------------------------------||
D|---------------------------------||
A|-------------3--------------3----||
E|-5-r-54-5-r-5--5-r-54-5-r-5------||

chorus
G|------------------------||
D|------------------------||
A|-333--------------------||
E|-----44-00-55555-3333---||

Description:
The last tab seemed pretty off so I decided to make my own. Here's
what is played.



Get this song at amazon.com      Ebay     Ringtones Ringtones  


Learn to play: Songwriting, Piano, Harmonica, Guitar
Also available at Muzikum: Incubus - Just a phase lyrics

Related Incubus Bass Tabs

New Skin bass
Calgone bass
Glass (complete Five String) bass
Shaft bass
New Skin 4 Strng bass
Made For Tv Movie bass
Hilikus bass
Psychopsilocybin bass
Zee Deveel bass
The Warmth bass
A Crow Left Of The Murder bass
Megelomaniac bass
Blood On The Ground bass
Crowded Elevator bass
11 A. M. bass
Vitamin bass
11am bass
Trouble In 421 bass
Drive Live bass
Circles bass


Guitar Tabs









All tabs are property and copyright of their owners. All tabs provided for educational purposes only. Privacy Policy, DMCA

Online converter - videoconverter.com