Incubus

Isadore Tabs



More from Incubus

Incubus Tabs
Incubus Chords
Incubus Bass
Incubus Lyrics

Capo on 1st (Notes in Relation to Capo)



Intro/Verse
                    (******)
|--------------------------------------------------------|
|-------1--0---1-----3/5--5------------------------------|
|-------0--0---0--0----------0-0----2--0--2--0-----------|
|-------2--2---2--0--5/7--7--0-0----0--0--0--0------0----|
|--0-0--0--0---0--------------------x--x--x--x--0h2------|
|--------------------------------3-----------------------|
   
                    (******)
|--------------------------------------------------------|
|-------1--0---1-----3/5--5------------------------------|
|-------0--0---0--0----------0-0----2--0--2--0-----------|
|-------2--2---2--0--5/7--7--0-0----0--0--0--0-----------|
|--0-0--0--0---0--------------------x--x--x--x--3-2h3p2--|
|--------------------------------3-----------------------|


Prechorus  (3x)                                End on
|----------------------------------------------|-(5)-|
|------1--1---1-----1--1-1---------------------|--6--|
|--5---2--0h2-0--0--0--0-0--0-0--7--7--7--7-7--|--7--|
|--3---3--3---0--0--2--2-2--0-0--x--x--x--x-x--|--7--|
|--3---3--3---3--0--3--3-3--0-0--5--5--5--5-5--|--5--|
|--5-----------------------------6--6--6--6-6--|-----|


Chorus
|-----1--0-1-0---------------------------------------------------|
|--3--3--3-3-3------1--1-1-1--------1--0-1-0---3/5---------------|
|--2--2--2-2-2---2--2--0-2-0--------2--2-2-2---------0-2--0-2-0--|
|--0-------------3--3--3-3-3--------2--2-2-2---5/7---0-0--0-0-0--|
|--------------------------------0-------------------------------|
|----------------1-----------0-3-------------------3-------------|

[Verse]
[Prechorus]
[Chorus]

Lead Pt. I
|---------------------------------|------------------------------|
|---------------------------------|------------------------------|
|---------------------------------|------------------------------|
|------7---------------7----------|------7-----------------------|
|--5-5---5--7b-7---5-5---5--7b-7--|--5-5---5--7--\3---3-3--------|
|---------------------------------|-----------------5-----5--5---|

|--------------------------------------------------------------------17---------|
|-----------------------------------------------------------------------15--17~-|
|-5-5-5-0-0-2-2--2---5-0--2--2---5-0--2-2/9-9-9-9/12-12-12--12-12-12------------|
|-------------------------------------------------------------------------------|
|-------------------------------------------------------------------------------|
|-------------------------------------------------------------------------------|

     (4x)
|---------------|-------------------------------------------------------------|
|------15--17~--|-17~--17-17--17-17-17-17-17-17-17-17-17-17-17-17-17-17-17-17-|
|-/14-----------|-------------------------------------------------------------|
|---------------|-------------------------------------------------------------|
|---------------|-------------------------------------------------------------|
|---------------|-------------------------------------------------------------|

[Chorus]

Lead Pt. II
|------------------------------------------------------------------|
|--10-------------10-----------10-----------------------13---------|
|-----7--9b-br9-7----7--9b---7----7\5-4b(5)r---2-2-2/12----12--14~-|
|------------------------------------------------------------------|
|------------------------------------------------------------------|
|------------------------------------------------------------------|

|-------------------------------------------------------------12-----17----------|
|-------13----------------13--------/17-17-17-17\15-15-15--15----15-----15--17br-|
|-14-12----12--14---14-14----12-14-----------------------------------------------|
|--------------------------------------------------------------------------------|
|--------------------------------------------------------------------------------|
|--------------------------------------------------------------------------------|

|-----17---------------17----------------------------------|
|--15----15-17br----15----15\13--12b(13)r---10-10-10---10--|
|----------------------------------------------------------|
|----------------------------------------------------------|
|----------------------------------------------------------|
|----------------------------------------------------------|

|--17---------------17-------------17----------------|
|-----15-17br----15----15--17br-------15\12b(13)r~---|
|----------------------------------------------------|
|----------------------------------------------------|
|----------------------------------------------------|
|----------------------------------------------------|
Get this song at amazon.com      Ebay     Ringtones Ringtones  


Learn to play: Songwriting, Piano, Harmonica, Guitar
Also available at Muzikum: Incubus - Isadore lyrics

Related Incubus Tabs

11 A. M. tabs
Everything Is Dead (4th Movement) tabs
Just A Phase tabs
Idiotbox tabs
Nebula tabs
Drive3 Crd tabs
Zee Deveel tabs
Golden tabs
Aqueous Transmission6 tabs
Warning Correct tabs
Consequence (Version 2) tabs
11am 3 tabs
You Will Be A Hot Dancer tabs
Southern Girl tabs
Smoking The Herb Again tabs
Are You In Bass tabs
Dig tabs
Aqueous Transmission5 tabs
Love Hurts Bass tabs
Talk Shows On Mute tabs


Guitar Tabs









All tabs are property and copyright of their owners. All tabs provided for educational purposes only. Privacy Policy, DMCA