Incubus

Idiot Box Bass Tabs



More from Incubus

Incubus Tabs
Incubus Chords
Incubus Bass
Incubus Lyrics




Band: Incubus
Song: Idiot Box
Time: 4/4
Album: S.C.I.E.N.C.E.
Bassist: Dirk Lance

Intro/Chorus
G|---------------------------------|
D|---------------------------------| play once
A|-5--5-6-3--5-6-3---------------xx|
E|-----------------5-55-3-6-6666---|

Intro/Chorus
G|----------------------------------------|
D|----------------------------------------| play once
A|-5--5-6-3--5-6-3------------------------|
E|-----------------5-55-3-6-6666181818---|

Verse (play whole verse set 3x)
G|----7-----5-| |-------7-----14----------|
D|------677--6|repeat |---------/15----15-14-12/| play
A|-55---------| 3x |----55-------------------| once
E|------------| |then---------------------|

Right before the chorus start play
G|-----|
D|-----|
A|-5-5-|
E|-----|

Play Chorus 2x

Play verse but the first set doesn?t have the 2nd riff

Play chorus 3x

Interlude
G|---12---------------|
D|-12--12-------5---54| repeat
A|-------10/---5-5-5--| 11x
E|----------------3---|

Then the break is just G (E|-3-|) a whole bunch of times
but is in a very weird time signature. It?s basically just a jam.

Then play this once
G|---------------|
D|---------------|
A|-5-----5-------|
E|---------------|
B|----3----33333-|

Then play the chorus 4x
Play the last 2 with a slightly different rhythm




Ending (I?m not sure about this part)
G|----------|
D|----------|
A|----------|
E|-6666-/18|



Get this song at amazon.com      Ebay     Ringtones Ringtones  


Learn to play: Songwriting, Piano, Harmonica, Guitar
Also available at Muzikum: Incubus - Idiot box lyrics

Related Incubus Bass Tabs

Science bass
Redefine (5 String) bass
Da Warmth bass
Wish You Where Here bass
Pardon Me bass
Mexico bass
Idiot Box bass
Sink Beneath The Line bass
11am bass
Megalomaniac bass
Redefine (4 String) bass
Morning View bass
New Skin 4 Strng bass
Steller .. Great bass
Glass (complete Five String) bass
Adolescents bass
Aqueous Transmission bass
Follow ( First Movement Of The Oddyssey) bass
Nice To Know You (4 String) bass
Pardon Me (4 String) bass


Guitar Tabs









All tabs are property and copyright of their owners. All tabs provided for educational purposes only. Privacy Policy, DMCA