Incubus

I Wish You Were Here Bass Tabs



More from Incubus

Incubus Tabs
Incubus Chords
Incubus Bass
Incubus Lyrics



Intro(a)
G|----------------------------------------|
D|----------------------------------------|
A|-----------2--5-------------------------|
E|--5---0---------0-----5---0----2--5--0--|


intro(b)
G|--------------------------------------------------------|
D|--------------------------------------------------------|
A|--------------22222--5----------------------------------|
E|-55555-00000-----------0000--55555-00000--22222--5-0000-|


Verse
G|-------------------------------------------|
D|------------------------------------9h11h9-|
A|------------/5-------------/5----9---------|
E|--7--5---2-------7--5---2------------------|

Verse w/variation
G|-------------------------------------------|
D|-------------------------------------------|
A|------------/5-------------/5----999-x-99--|
E|--7--5---2-------7--5---2------------------|

Chorus
G|-----------------------------------------------------|
D|-----------------------------------------------------|
A|--------------2222--5--------------------------------|
E|-5555-00000-----------0000--5555-00000--2222--5-0000-|

G|-----------------------------------------------------|
D|-----------------------------------------------------|
A|--------------2222--5-7777---------------------------|
E|-5555-00000-----------------5555-00000--2222--5-0000-|

Verse 2
G|-------------------------------------------------------|
D|------------------------------------------------9h11h9-|
A|--------------------5-55-5-----------------5--9--------|
E|--7-77--5-5---2-22---------7-77--5-5--2-22-------------|

G|-------------------------------------------------------|
D|-------------------------------------------------------|
A|--------------------5-55-5-----------------5--999-x-99-|
E|--7-77--5-5---2-22---------7-77--5-5--2-22-------------|


Bridge
G|----------------------|
D|----------------------|
A|----------------------|
E|-2222--2/5555--3333---|


Bridge w/variation
G|--------------------------------------------|
D|--------------------------------------------|
A|--------------------------------------------|
E|-2222--2/5555--333/14-14-14-14-14-14-14-14--|

End
G|-----|
D|-----|
A|-----|
E|--5--|

Brought to you by the BassMasta - http://www.tabs-database.com



Get this song at amazon.com      Ebay     Ringtones Ringtones  


Learn to play: Songwriting, Piano, Harmonica, Guitar
Also available at Muzikum: Incubus - I Wish You Were Here lyrics

Related Incubus Bass Tabs

Stellar( 4 And 5 String) bass
Redefine bass
A Certain Shade Of Green (acoustic) bass
Nowhere Fast bass
Talk Show On Mute bass
Calgone (secret Songs / Secret Part) bass
Aqueous Transmission bass
Adolescents bass
Admiration bass
Psychopsilocybin bass
Trouble In 421 bass
Out From Under bass
New Skin bass
Crowded Elevator bass
I Miss You bass
Make A Move bass
The Answer bass
Shaft bass
Take Me To Your Leader bass
Favorite Things bass


Guitar Tabs









All tabs are property and copyright of their owners. All tabs provided for educational purposes only. Privacy Policy, DMCA