Incubus

Hilikus Bass Tabs



More from Incubus

Incubus Tabs
Incubus Chords
Incubus Bass
Incubus Lyrics



key:
bend up (^)
slide up ()
slide down (/)
hammer-on (>)

Intro
G---------5^-----------------------------------------------
D-----5-7-----7-5-7---77-----------------------------------
A--------------------------5-----------12----12-----------
E-----------------------------5----5/----------------------

This part is kinda tricky. Dirk plays 3 hammer-ons back-to-back
in a set of 4.

G----------------------------------------------------------
D-----5>7-5>7-5>7----5>7-5>7-5>7----5>7-5>7-5>7------------
A----------------------------------------------------------
E----------------------------------------------------------

G-------------------------------------------
D-----5>7-5>7-5>7----7----------------------
A--------------------------7---------------
E-------------------------------------------

Verse (play 3x)
G-------------4------------------12-------12---------------
D--------5>7-----7-5-7-----11>12----12-11----11-----------
A----------------------------------------------------------
E-----5-----------------5----------------------------------

G-------------4----------7--8--7--8---------------
D--------5>7-----7-5-7---7--8--7--8---------------
A------------------------5--6--5--6---------------
E-----5-------------------------------------------

PreChorus
G----------------------------------------------------------
D----------------------------------------------------------
A------------------3---3-3-3-------------3-3---------------
E-----5--5---5-5---------------5-5---5---------------------

G----------------------------------------------------------
D-----04-5-6-----------------------------------------------
A-----------------------3-3--------------------------------
E--------------5-5--5---------02-3-4-----------------------

G----------------------------------------------------------
D-------------------5/-10---10-10-10-10-10-----------------
A---------------3-3----------------------------------------
E-----5-5---5----------------------------------------------

Chorus
G----------------------------------------------------------
D----------------------------------------------------------
A---------------3-3----------------3-3---------------------
E-----5-5---5------------5-5---5---------------------------


G----------------------------------------------------------
D----------------------------------------------------------
A---------------3-3----------------3-3--3--3--3-3----------
E-----5-5---5------------5-5---5---------------------------

This part is where they do a little break in-between the verse.
It's just the same as the original verse except with the break.

Verse (play 1x)

After you play the verse 1x, then it goes directly to the second
half of the original verse. If you listen to the cd, you'll know
what I mean.

2nd half of verse
G--------------12-------12--------------4------------------
D--------11>12----12-11----11-----5>7-----7-5-7-----------
A----------------------------------------------------------
E-----5-------------------------5--------------------------

G-----7--8--7--8-------------------------------------------
D-----7--8--7--8-------------------------------------------
A-----5--6--5--6-------------------------------------------
E----------------------------------------------------------

Then after you play the 2nd half of the verse, you follow the
order of parts listed below. Then the song basically goes in
order the rest of the way after that. Except for the intro part
which they use as a bridge for the guitar solo and a couple
other different parts the bassist add's during the solo.

Verse (play 1x)
PreChorus (play 1x)
Chorus (play 2x)

Bridge
G---------5^-----------------------------------------------
D-----5-7-----7-5-7---77-----------------------------------
A--------------------------5-------------------------------
E----------------------------------------------------------

Guitar Solo
G-------------4------------------12-------12---------------
D--------5>7-----7-5-7-----11>12----12-11----11-----------
A----------------------------------------------------------
E-----5-----------------5----------------------------------

G-------------4------------------11----11-12-14-14-12-11---
D--------5>7-----7-5-7-----11>12----12---------------------
A----------------------------------------------------------
E-----5-----------------5----------------------------------

G-------------4------------------12-------12---------------
D--------5>7-----7-5-7-----11>12----12-11----11-----------
A----------------------------------------------------------
E-----5-----------------5----------------------------------

G-------------4------------------11----11-12-14-14-12-11---
D--------5>7-----7-5-7-----11>12----12---------------------
A----------------------------------------------------------
E-----5-----------------5----------------------------------

G----------------------------------------------------------
D---------------04-5-6-------------------------------------
A----------3-3------------------3-3------------------------
E-----5-5---------------5-5--5-------02-3-4----------------

G----------------------------------------------------------
D------------------04-5-6----------------------------------
A-------------3-3------------------3-3---------------------
E-----5-5--5---------------5-5--5--------------------------

G----------------------------------------------------------
D-----5/-10---10-10-10-10-10-------------------------------
A----------------------------------------------------------
E----------------------------------------------------------

G----------------------------------------------------------
D---------------------------------04-5-6-------------------
A----------3-3---------------3-3---------------------------
E-----5-5-------02-3-4--5-5--------------------------------

G----------------------------------------------------------
D---------------------------------5/-10---10-10-10-10-10---
A----------3-3---------------3-3---------------------------
E-----5-5-------02-3-4--5-5--------------------------------

This part comes right after the guitar solo and he plays the
same thing until the next chorus.

DJ solo (play 4x)
G-------------------------------------4--------------------
D---------------------------------4>5---5-4----------------
A----------3-3---------------3-3------------3--------------
E-----5-5-------02-3-4--5-5--------------------------------


PreChorus 1x
Chorus 1x

The next two parts are modified for the ending just to kinda
build it up a little.

Modified PreChorus (play 4x)
G----------------------------------------------------------
D---------------04-5-6-------------------------------------
A----------3-3---------------------------------------------
E-----5-5--------------------------------------------------

Modified Chorus (play 4x)
G----------------------------------------------------------
D----------------------------------------------------------
A---------------3-3--3--3--3-3-----------------------------
E-----5-5---5----------------------------------------------

The ending of this song is the same as the bridge to the guitar
solo and the intro.

End
G---------5^-----------------------------------------------
D-----5-7-----7-5-7---77-----------------------------------
A--------------------------5-------------------------------
E-------------------------------5--------------------------

Taken from The BassMasta -- http://www.tabs-database.com



Get this song at amazon.com      Ebay     Ringtones Ringtones  


Learn to play: Songwriting, Piano, Harmonica, Guitar
Also available at Muzikum: Incubus - Hilikus lyrics

Related Incubus Bass Tabs

Follow ( First Movement Of The Oddyssey) bass
Adolescents bass
A Certain Shade Of Green (acoustic) bass
Made For Tv Movie bass
Smile Lines bass
The Warmth (4 String) bass
Da Warmth bass
Glass bass
Mexico bass
Medium bass
Pistola bass
Incubus-redefine bass
Agoraphobia bass
Wish You Were Here bass
Megalomaniac bass
Nowhere Fast bass
Nebula bass
Calgone bass
New Skin 4 Strng bass
Speak Free Intro bass


Guitar Tabs









All tabs are property and copyright of their owners. All tabs provided for educational purposes only. Privacy Policy, DMCA