Incubus

Have You Ever Bass Tabs



More from Incubus

Incubus Tabs
Incubus Chords
Incubus Bass
Incubus Lyrics



Artist: Incubus
Song: Have You Ever
Album: Morning View
Tab Type: Bass
Tabbed By: Chris Gallen aka DJ Scratch-N-Sniff

Tuning: Drop D (DADG)

/ = slide up
= slide down
h = hammer on
p = pull off
( ) = note, tip, or alternate method of playing
%##% = torment a nearby feline


Dirk uses his nifty 5-string Warwick for recordings, but I'm
pretty sure he doesn't hit anything lower than D (good for
those of us lacking a B sting).


Intro Riff (May Vary a Little):
G|---------------------------|
D|---------------------------|
A|---------------------------|x8
D|-555-555-555-0-0-0-0-3/8-8-|

Verse:
G|-------------------------------------------------------|
D|-------------------------------------------------------|
A|---------------------------(2x on last)--(1-111-11111)-|x4
D|-1-1-1-0-1--5-7-7--3-5-5-5---1-1-1-0-1----8-888-88888--|

Chorus:
G|-------------------------------------------|
D|-------------------------------------------|
A|-------3-3-5-5-555-55-0-0-0----------------|x4
D|-0-3-3----------------------5-5-3-3-333-33-|

Intro Riff x1

Verse x4

Chorus x4

Bridge:
G|-----------------------------|
D|-(slide 1st time only)-------|
A|--------0-------------(1)----|x3
D|-3/15--(7)--0------3---8---5-|

Chorus x4

Intro Riff x4

-----------------------------------------------------------

Questions, comments, corrections, rants, raves,
and cash donations can be directed to cjgallen612@yahoo.com
Threats can be directed to kissmy@ss.edu






Get this song at amazon.com      Ebay     Ringtones Ringtones  


Learn to play: Songwriting, Piano, Harmonica, Guitar
Also available at Muzikum: Incubus - Have you ever lyrics

Related Incubus Bass Tabs

Anti-gravity bass
Idiot Box bass
Calgone bass
Deep Inside bass
Megelomaniac bass
Megalomaniac Perfect With All Fills bass
Psychopsilocybin bass
Leech bass
A Kiss To Send Us Off bass
Hilikus bass
Battlestar Scralatchtica bass
Are You In bass
Privelege bass
Consequence bass
11 Am Tab bass
A Certain Shade Of Green bass
Vitamin bass
Familiar bass
Magic Medicine bass
Stellar bass


Guitar Tabs









All tabs are property and copyright of their owners. All tabs provided for educational purposes only. Privacy Policy, DMCA