Incubus

Glass (complete Five String) Bass Tabs



More from Incubus

Incubus Tabs
Incubus Chords
Incubus Bass
Incubus Lyrics




Few mesures rest then...

G :------------------|------------------|------------------|
D :------------------|------------------|------------------|
A :14-----0-4*5*6*7--|14-----0-4*5*6*7--|14-----0-4*5*6*7--|
E :-----7------------|-----7------------|-----7------------|
B :------------------|------------------|------------------|

G :------------------|------------------|------------------|
D :------------------|------------------|------------------|
A :14-----0-4*5*6*7--|14-----0-4*5*6*7--|14-----0-4*5*6*7--|
E :-----7------------|-----7------------|-----7------------|
B :------------------|------------------|------------------|

G :------------------|----------------------|------------------|
D :------------------|----------------------|------------------|
A :14-----0-4*5*6*7--|------7-7---14-----0-4|*5*6*7--14-----0-4|
E :-----7------------|5-5-5-----5------7----|-------------7----|
B :------------------|----------------------|------------------|

G :------------------|------------------|------------------|
D :------------------|------------------|------------------|
A :*5*6*7--14-----0-4|*5*6*7--14-----0-4|*5*6*7--14-----0-4|
E :-------------7----|-------------7----|-------------7----|
B :------------------|------------------|------------------|

G :------------------|------------------|------------------|
D :------------------|------------------|------------------|
A :*5*6*7--14-----0-4|*5*6*7--14-----0-4|*5*6*7--14-----0-4|
E :-------------7----|-------------7----|-------------7----|
B :------------------|------------------|------------------|

G :-----------------------|-----------------------------|
D :-----------------------|-----------------------------|
A :*5*6*7--0-0-0-0-0-0-0-3|3-3-3-3-3-2-2-0-0-0-0-0-0-0-3|
E :-----------------------|-----------------------------|
B :-----------------------|-----------------------------|

G :-----------------------------|-----------------------------|
D :-----------------------------|-----------------------------|
A :3-3-3-3-3-2-2-0-0-0-0-0-0-0-3|3-3-3-3-3-2-2-0-0-0-0-0-0-0-3|
E :-----------------------------|-----------------------------|
B :-----------------------------|-----------------------------|

G :-----------------------|------------------|-----------------|
D :-----------------------|------------------|-----------------|
A :3-3-3-3-3-2-2----2-2---|---2-2------2-2---|0---3------2-2---|
E :-----------------------|------------------|-----------------|
B :--------------0------0-|0------0-0------0-|--------0------0-|

G :-----------------|2-2-5-5----------|------------------|
D :---------0-0-2-2-|-----------------|------------------|
A :---2-2-----------|-----------2-2---|---2-2------2-2---|
E :-----------------|-----------------|------------------|
B :0------0---------|--------0------0-|0------0-0------0-|

G :-----------------|-----------------|2-2-5-5---------|
D :-----------------|---------0-0-2-2-|----------------|
A :0---3------2-2---|---2-2-----------|--------2-*-----|
E :-----------------|-----------------|----------------|
B :--------0------0-|0------0---------|----------------|

G :--------------------|----------------|------------------|
D :--------------------|----------------|------------------|
A :--------------7-7---|----------------|14-----0-4*5*6*7--|
E :--------5-5-5-----5-|*---------------|-----7------------|
B :--------------------|----------------|------------------|

G :------------------|------------------|------------------|
D :------------------|------------------|------------------|
A :14-----0-4*5*6*7--|14-----0-4*5*6*7--|14-----0-4*5*6*7--|
E :-----7------------|-----7------------|-----7------------|
B :------------------|------------------|------------------|

G :------------------|------------------|------------------|
D :------------------|------------------|------------------|
A :14-----0-4*5*6*7--|14-----0-4*5*6*7--|14-----0-4*5*6*7--|
E :-----7------------|-----7------------|-----7------------|
B :------------------|------------------|------------------|

G :------------------|------------------------|
D :------------------|------------------------|
A :14-----0-4*5*6*7--|------7-7---------8-8---|
E :-----7------------|5-5-5-----5-6-6-6-----6-|
B :------------------|------------------------|

G :------------------------------|------------------------------|
D :------------------------------|------------------------------|
A :0-0-0-0-0-0-0-3-3-3-3-3-3-2-2-|0-0-0-0-0-0-0-3-3-3-3-3-3-2-2-|
E :------------------------------|------------------------------|
B :------------------------------|------------------------------|

G :------------------------------|------------------------------|
D :------------------------------|------------------------------|
A :0-0-0-0-0-0-0-3-3-3-3-3-3-2-2-|0-0-0-0-0-0-0-3-3-3-3-3-3-2-2-|
E :------------------------------|------------------------------|
B :------------------------------|------------------------------|

G :------------------|-----------------|------------------|
D :------------------|-----------------|------------------|
A :---2-2------2-2---|---2-2---0---3---|---2-2------2-2---|
E :------------------|-----------------|------------------|
B :0------0-0------0-|0------0---------|0------0-0------0-|

G :--------2-2-5-5-|------------------|-----------------|
D :0-0-2-2---------|------------------|-----------------|
A :----------------|---2-2------2-2---|---2-2---0---3---|
E :----------------|------------------|-----------------|
B :----------------|0------0-0------0-|0------0---------|

G :------------------|--------2-2-5-5-|-----------------------|
D :------------------|0-0-2-2---------|-----------------------|
A :---2-2------2-2---|----------------|2-3-2-0-2-0-2-3-2-0-2-0|
E :------------------|----------------|-----------------------|
B :0------0-0------0-|----------------|-----------------------|

G :----------------------|-----------------------|----------------------|
D :--------------------2-|-----------------------|--------------------2-|
A :2-3-2-0-2-0-2-3-2-2---|2-3-2-0-2-0-2-3-2-0-2-0|2-3-2-0-2-0-2-3-2-2---|
E :----------------------|-----------------------|----------------------|
B :----------------------|-----------------------|----------------------|

G :-----------------------|----------------------|-----------------------|
D :-----------------------|--------------------2-|-----------------------|
A :2-3-2-0-2-0-2-3-2-0-2-0|2-3-2-0-2-0-2-3-2-2---|2-3-2-0-2-0-2-3-2-0-2-0|
E :-----------------------|----------------------|-----------------------|
B :-----------------------|----------------------|-----------------------|

G :----------------------|| -------------------------------|
D :--------------------2-||*-------------------------------|
A :2-3-2-0-2-0-2-3-2-2---||*-------------------------------|
E :----------------------|| -------------------------------|
B :----------------------|| 0-0-0-0-0-0-0-0-0-0-0-0-0-0-0-0|

G :---------------- 2|-------------------------------|----------------|
D :----------------*||-------------------------------|----------------|
A :----------------*||-------------------------------|----------------|
E :---------------- ||-------------------------------|----------------|
B :*--------------- ||0-0-0-0-0-0-0-0-0-0-0-0-0-0-0-0|*---------------|

G :----------------|-----------------|-----------------|-----------------|
D :----------------|-----------------|-----------------|-----------------|
A :2-*-----2-*-----|---------14-----0|4*5*6*7--14-----0|4*5*6*7--14-----0|
E :----2-*-----2-*-|--------------7--|--------------7--|--------------7--|
B :----------------|-----------------|-----------------|-----------------|

G :-----------------|-----------------|-----------------|-----------------|
D :-----------------|-----------------|-----------------|-----------------|
A :4*5*6*7--14-----0|4*5*6*7--14-----0|4*5*6*7--14-----0|4*5*6*7--14-----0|
E :--------------7--|--------------7--|--------------7--|--------------7--|
B :-----------------|-----------------|-----------------|-----------------|

G :-----------------|-----------------|------------------|
D :-----------------|-----------------|------------------|
A :4*5*6*7--14-----0|4*5*6*7-----2-2--|----2-2------2-2--|
E :--------------7--|-----------------|------------------|
B :-----------------|---------0------0|-0------0-0------0|

G :-----------------|-----------------|-2-2-5-5---------|
D :-----------------|----------0-0-2-2|-----------------|
A :-0---3------2-2--|----2-2----------|------------2-2--|
E :-----------------|-----------------|-----------------|
B :---------0------0|-0------0--------|---------0------0|

G :------------------|-----------------|-----------------|
D :------------------|-----------------|----------0-0-2-2|
A :----2-2------2-2--|-0---3------2-2--|----2-2----------|
E :------------------|-----------------|-----------------|
B :-0------0-0------0|---------0------0|-0------0--------|

G :-2-2-5-5---------|------------------|-----------------|
D :-----------------|------------------|-----------------|
A :------------2-2--|----2-2------2-2--|-0---3------2-2--|
E :-----------------|------------------|-----------------|
B :---------0------0|-0------0-0------0|---------0------0|

G :-----------------|-2-2-5-5---------|------------------|
D :----------0-0-2-2|-----------------|------------------|
A :----2-2----------|------------2-2--|----2-2------2-2--|
E :-----------------|-----------------|------------------|
B :-0------0--------|---------0------0|-0------0-0------0|

G :-----------------|----------5-5-5-5-2-2-2|2------------------------|
D :-----------------|-----------------------|--2-2-2-2-0-0-0-0--------|
A :-0---3------2-2--|----2-2----------------|------------------2-*----|
E :-----------------|-----------------------|-------------------------|
B :---------0------0|-0------0--------------|-------------------------|

G :--------------------|----------------|
D :--------------------|----------------|
A :---------------7-7--|----------------|
E :---------5-5-5-----5|-7-*------------|
B :--------------------|----------------|



Get this song at amazon.com      Ebay     Ringtones Ringtones  


Learn to play: Songwriting, Piano, Harmonica, Guitar
More Incubus lyrics available at Muzikum

Related Incubus Bass Tabs

Battlestar Scralatchtica bass
Are You In bass
Anti-gravity bass
Just A Phase bass
Megolomaniac bass
Redefine bass
Privilege bass
Summer Romance bass
Steller .. Great bass
Summer Romance (anti-gravity Love Song) bass
11 Am Tab bass
Zee Deveel bass
Privelege bass
You Will Be A Hot Dancer bass
11am bass
Follow ( First Movement Of The Oddyssey) bass
Talk Show On Mute bass
Incubus-redefine bass
Hilikus bass
11 A. M. bass


Guitar Tabs









All tabs are property and copyright of their owners. All tabs provided for educational purposes only. Privacy Policy, DMCA

Online converter - videoconverter.com