Incubus

Glass Bass Tabs



More from Incubus

Incubus Tabs
Incubus Chords
Incubus Bass
Incubus Lyrics



Incubus
Glass

Intro + Verse
G|-----|----------------|
D|-----|----------------|
A|-14-|----0h4-5-6-789-| (the 8 and 9 is what I added)
E|-----|-7--------------|
B|-----|----------------|

Verse variations
G|---------------|---------------|---------------|---------------|
D|---------------|---------------|---------------|---------------|
A|-----0h4-5-6-7-|-----0h4-5-6-7-|----0h4-5-6-7~-|----0h4-5-66-7-|
E|-7~------------|-/7------------|-7-------------|-7-------------|
B|---------------|---------------|---------------|---------------|

It’s worth playing around with trhe variations to see what you’re happy
with, and combining between each gives loads of options for each verse.

Fill 1 (at 0:27)
G|----------|
D|----------|
A|-----77---|
E|-555----5-|
B|----------|

Play through verse until you get to...

Pre-chorus
G|-------------------|
D|-------------------|
A|-------------------|
E|-55555555-8-8-88-7-|x2 and then...
B|-------------------|

Chorus
G|---------------------------|
D|---------------------------|
A|---------------------------|
E|-7-7----7-7----7-7----5--8-|
B|-----0------0------0-------|

Chorus fill 1
G|------------------------------------------|
D|------------------------------------------|
A|----------------------55/77/999/12121212-|
E|-7-7----7-7----7-7------------------------|
B|-----0------0------0----------------------|

G|----------------------------|
D|----------------------------|
A|----------------------------|
E|-7-7----7-7----7-7----55-88-| (play this 2nd and 4th time if needed)
B|-----0------0------0--------|

After chorus, rest and play fill 1 again, resume verse until 1:32, then
play...

Fill 2
G|-------------------|
D|-------------------|
A|-----77-------88---|
E|-555----5-666----6-|
B|-------------------|

Play through pre-chorus and chorus, leading to...

Interlude at 1:59
G|-----------------------------------------------|
D|-----------------------------------------------|
A|---------------------------------------------8-|
E|-7h8-7-5h7p5-7h8-7-5h7p5-7h8-7-5h7p5-7h8-8-7---|x3
B|-----------------------------------------------|

G|------------------------------------------------|
D|------------------------------------------------|
A|-------------------------------------/88--8---8-|
E|-7h8-7-5h7p5-7h8-7-5h7p5-7h8-7-5h7p5----8---8---|
B|------------------------------------------------|

Post-interlude
G|--------------------------|
D|--------------------------|
A|--------------------------|
E|--------------------------|
B|-0000000000000000x-(rest)-|x4. Rest then play...

Fill 3
G|---------|
D|---------|
A|-7---7---|
E|---7---7-|
B|---------|

Resume verse up to chorus, play chorus through, on last fill play...

Chorus fill 2 (hold last B)
G|---------------------------------------------|
D|---------------------------------------------|
A|----------------------999/121277------------|
E|-7-7----7-7----7-7---------------111199-7---|
B|-----0------0------0-------------------------|

Finish on...
G|--------------------|
D|--------------------|
A|-----77-------------|
E|-555----5-7~-(hold)-|
B|--------------------|and you’re done!

Taken from The BassMasta -- http://www.tabs-database.com



Get this song at amazon.com      Ebay     Ringtones Ringtones  


Learn to play: Songwriting, Piano, Harmonica, Guitar
Also available at Muzikum: Incubus - Glass lyrics

Related Incubus Bass Tabs

Blood On The Ground bass
A Crow Left Of The Murder bass
When It Comes bass
Here In My Room bass
11am bass
Megolomaniac bass
A Certain Shades Of Green [live] bass
Agoraphobia bass
Idiot Box bass
Made For Tv Movie bass
Echo bass
Nice To Know You bass
New Skin 4 Strng bass
Pardon Me (4 String) bass
Shaft bass
Stellar bass
Calgone bass
Speak Free bass
Just A Phase bass
Talk Show On Mute bass


Guitar Tabs









All tabs are property and copyright of their owners. All tabs provided for educational purposes only. Privacy Policy, DMCA