Incubus

Follow ( First Movement Of The Oddyssey) Bass Tabs



More from Incubus

Incubus Tabs
Incubus Chords
Incubus Bass
Incubus Lyrics




Rest until bass enter around 45 seconds into the song.

G :----------------|----------------|----------------|----------------|
D :----------------|----------------|----------------|----------------|
A :----------------|----------------|----------------|----------------|
E :----------------|5---5---5-5-5-5-|5-5-5---5---5-5-|5---1---1-1-1-1-|


G :----------------|----------------|----------------|----------------|
D :----------------|----------------|----------------|----------------|
A :----------------|----------------|----------------|----------------|
E :1-1-1---1---1-1-|1---1---1-1-1-1-|5---5---5-5-5-5-|5-5-5---5---5-5-|


G :----------------|----------------|----------------|----------------|
D :----------------|----------------|----------------|----------------|
A :----------------|----------------|----------------|----------------|
E :5---1---1---1-1-|1-0-0---0---0-0-|0---0---0-0-0-0-|5---5---5-5-5-5-|


G :----------------|----------------|----------------|----------------|
D :----------------|----------------|----------------|----------------|
A :----------------|----------------|----------------|----------------|
E :5-5-5---5---5-5-|5---1---1-1-1-1-|1-1-1---1---1-1-|1---1---1-1-1-1-|


G :----------------|----------------|----------------|----------------|
D :----------------|----------------|----------------|----------------|
A :----------------|----------------|----------------|----------------|
E :5---5---5-5-5-5-|5-5-5---5---5-5-|5---1---1---1-1-|1-0-0---0---0-0-|


G :----------------|----------------|----------------|----------------|
D :----------------|----------------|----------------|----------------|
A :----------------|----------------|----------------|----------------|
E :0---0---0-0-0-0-|*---------------|----------------|----------------|


G :----------------|----------------|----------------|----------------|
D :----------------|----------------|----------------|----------------|
A :----------------|----------------|----------------|----------------|
E :----------------|----------------|----------------|----------------|


G :----------------|----------------|----------------|----------------|
D :----------------|----------------|----------------|----------------|
A :----------------|----------------|----------------|----------------|
E :----------------|----------------|----------------|----------------|


G :----------------|----------------|----------------|----------------|
D :----------------|----------------|----------------|----------------|
A :----------------|----------------|----------------|----------------|
E :----------------|----------------|----------------|----------------|


G :----------------|----------------|----------------|----------------|
D :----------------|----------------|----------------|3---3---*-------|
A :----------------|0---0---*-------|----------------|----------------|
E :----------------|----------------|----------------|----------------|


G :----------------|----------------|----------------|----------------|
D :----------------|----------------|----------------|2---2---*-------|
A :----------------|0---0---*-------|----------------|----------------|
E :----------------|----------------|----------------|----------------|


G :----------------|----------------|----------------|----------------|
D :----------------|----------------|----------------|3---3---*-------|
A :----------------|0---0---*-------|--0-0-*---------|----------------|
E :----------------|----------------|----------------|----------------|


G :----------------|----------------|----------------|----------------|
D :--3-3-*---------|----------------|----------------|2---2---*-------|
A :----------------|0---0---*-------|--0-0-*---------|----------------|
E :----------------|----------------|----------------|----------------|


G :----------------|----------------|----------------|----------------|
D :--2-2-*-----2---|*---------------|----------------|----------------|
A :----------------|----------------|----------------|----------------|
E :----------------|----------------|----------------|5---5---5-5-5-5-|


G :----------------|----------------|----------------|----------------|
D :----------------|----------------|----------------|----------------|
A :----------------|3---3---3-3-3-3-|--3-3---3-3-3-3-|----------------|
E :--5-5---5-5-5-5-|----------------|----------------|5---5---5-5-5-5-|


G :----------------|----------------|----------------|----------------|
D :----------------|----------------|----------------|----------------|
A :----------------|----------------|----------------|----------------|
E :--5-5---5-5-5-5-|1---1---1---1-1-|--1-0---0---0-0-|5---5---5-5-5-5-|


G :----------------|----------------|----------------|----------------|
D :----------------|----------------|----------------|----------------|
A :----------------|3---3---3-3-3-3-|--3-3---3-3-3-3-|----------------|
E :--5-5---5-5-5-5-|----------------|----------------|1---1---1-1-1-1-|


G :----------------|----------------|----------------|----------------|
D :----------------|----------------|----------------|----------------|
A :----------------|----------------|----------------|----------------|
E :--1-1---1-1-1-1-|0---0---0---0-0-|--0-0---0---0-0-|5---5---5-5-5-5-|


G :----------------|----------------|----------------|----------------|
D :----------------|----------------|----------------|----------------|
A :----------------|----------------|----------------|----------------|
E :5-5-5---5---5-5-|5---1---1-1-1-1-|1-1-1---1---1-1-|1---1---1-1-1-1-|


G :----------------|----------------|----------------|----------------|
D :----------------|----------------|----------------|----------------|
A :----------------|----------------|----------------|----------------|
E :5---5---5-5-5-5-|5-5-5---5---5-5-|5---1---1---1-1-|1-0-0---0---0-0-|


G :----------------|----------------|----------------|----------------|
D :----------------|----------------|----------------|----------------|
A :----------------|----------------|----------------|----------------|
E :0---0---0-0-0-0-|*---------------|----------------|----------------|


G :----------------|----------------|----------------|----------------|
D :----------------|----------------|----------------|----------------|
A :----------------|----------------|----------------|----------------|
E :----------------|----------------|----------------|----------------|


G :----------------|----------------|----------------|----------------|
D :----------------|----------------|----------------|----------------|
A :----------------|----------------|----------------|----------------|
E :----------------|----------------|----------------|----------------|


G :----------------|----------------|----------------|----------------|
D :----------------|----------------|----------------|----------------|
A :----------------|----------------|----------------|----------------|
E :----------------|----------------|----------------|----------------|


G :----------------|----------------|----------------|----------------|
D :----------------|----------------|----------------|3---3---*-------|
A :----------------|0---0---*-------|----------------|----------------|
E :----------------|----------------|----------------|----------------|


G :----------------|----------------|----------------|----------------|
D :----------------|----------------|----------------|2---2---*-------|
A :----------------|0---0---*-------|----------------|----------------|
E :----------------|----------------|----------------|----------------|


G :----------------|----------------|----------------|----------------|
D :----------------|----------------|----------------|3---3---*-------|
A :----------------|0---0---*-------|--0-0-*---------|----------------|
E :----------------|----------------|----------------|----------------|


G :----------------|----------------|----------------|----------------|
D :--3-3-*---------|----------------|----------------|2---2---*-------|
A :----------------|0---0---*-------|--0-0-*---------|----------------|
E :----------------|----------------|----------------|----------------|


G :----------------|----------------|----------------|----------------|
D :--2-2-*-----2---|*---------------|----------------|----------------|
A :----------------|----------------|----------------|----------------|
E :----------------|----------------|----------------|----------------|

Empty space effe ct
G :----------------|----------------|----------------|----------------|
D :----------------|----------------|----------------|----------------|
A :----------------|----------------|----------------|----------------|
E :----------------|----------------|5---5---5---5-5-|----5---5-5-5-5-|


G :----------------|----------------|----------------|----------------|
D :----------------|----------------|----------------|----------------|
A :3---3---3---3-3-|----3---3-3-3-3-|----------------|----------------|
E :----------------|----------------|5---5---5---5-5-|----5---5-5-5-5-|


G :----------------|----------------|----------------|----------------|
D :----------------|----------------|----------------|----------------|
A :----------------|----------------|----------------|----------------|
E :1---1---1---1-1-|--1-0---0---0-0-|5---5---5---5-5-|----5---5-5-5-5-|


G :----------------|----------------|----------------|----------------|
D :----------------|----------------|----------------|----------------|
A :3---3---3---3-3-|----3---3-3-3-3-|----------------|----------------|
E :----------------|----------------|1---1---1---1-1-|----1---1-1-1-1-|


G :----------------|----------------|----------------|----------------|
D :----------------|----------------|----------------|----------------|
A :----------------|----------------|----------------|----------------|
E :0---0---0---0-0-|--0-0---0---0-0-|5---5---5---5-5-|----5---5-5-5-5-|


G :----------------|----------------|----------------|----------------|
D :----------------|----------------|----------------|----------------|
A :3---3---3---3-3-|----3---3-3-3-3-|----------------|----------------|
E :----------------|----------------|5---5---5---5-5-|----5---5-5-5-5-|


G :----------------|----------------|----------------|----------------|
D :----------------|----------------|----------------|----------------|
A :----------------|----------------|----------------|----------------|
E :1---1---1---1-1-|--1-0---0---0-0-|5---5---5---5-5-|----5---5-5-5-5-|


G :----------------|----------------|----------------|----------------|
D :----------------|----------------|----------------|----------------|
A :3---3---3---3-3-|----3---3-3-3-3-|----------------|----------------|
E :----------------|----------------|1---1---1---1-1-|----1---1-1-1-1-|


G :----------------|----------------|----------------|----------------|
D :----------------|----------------|----------------|----------------|
A :----------------|----------------|----------------|----------------|
E :0---0---0---0-0-|--0-0---0---0-0-|5---5---5-5-5-5-|5-5-5---5---5-5-|


G :----------------|----------------|----------------|----------------|
D :----------------|----------------|----------------|----------------|
A :----------------|----------------|----------------|----------------|
E :5---1---1-1-1-1-|1-1-1---1---1-1-|1---1---1-1-1-1-|5---5---5-5-5-5-|


G :----------------|----------------|----------------|----------------|
D :----------------|----------------|----------------|----------------|
A :----------------|----------------|----------------|----------------|
E :5-5-5---5---5-5-|5---1---1---1-1-|1-0-0---0---0-0-|0---0---0-0-0-0-|


G :----------------|----------------|----------------|----------------|
D :----------------|----------------|----------------|----------------|
A :----------------|----------------|----------------|----------------|
E :5---5---5-5-5-5-|5-5-5---5---5-5-|5---1---1-1-1-1-|1-1-1---1---1-1-|


G :----------------|----------------|----------------|----------------|
D :----------------|----------------|----------------|----------------|
A :----------------|----------------|----------------|----------------|
E :1---1---1-1-1-1-|5---5---5-5-5-5-|5-5-5---5---5-5-|5---1---1---1-1-|


G :----------------|----------------|----------------|
D :----------------|----------------|----------------|
A :----------------|----------------|----------------|
E :1-0-0---0---0-0-|0---0---0-0-0-0-|*---------------|



Get this song at amazon.com      Ebay     Ringtones Ringtones  


Learn to play: Songwriting, Piano, Harmonica, Guitar
More Incubus lyrics available at Muzikum

Related Incubus Bass Tabs

Stellar bass
Psychopsilocybin bass
The Warmth (4 String) bass
Redefine (4 String) bass
Wish You Where Here bass
Aswethinkweiz bass
A Certain Shade Of Green bass
Glass (complete Five String) bass
New Skin 4 String bass
Version bass
Pardon Me bass
Battlestar Scralatchtica bass
A Certain Shade Of Green (acoustic) bass
Summer Romance (anti-gravity Love Song) bass
Azwethinkweiz bass
Out From Under bass
Magic Medicine bass
Admiration bass
Nice To Know You (4 String) bass
Calgone (secret Songs / Secret Part) bass


Guitar Tabs









All tabs are property and copyright of their owners. All tabs provided for educational purposes only. Privacy Policy, DMCA