Incubus

Everything Is Dead (4th Movement) Tabs



More from Incubus

Incubus Tabs
Incubus Chords
Incubus Bass
Incubus Lyrics



Artist : Incubus
Song : Everything Is Dead (4th Movement of the Odyssey)
Album : Halo 2 original soundtrack
Performed on the "Alive at Red Rocks" DVD
Tabbed : Sean Provost


Part 1 (x4)

Okay, I know there is 3 different strumming patterns, (4, then 5,
then the last with 6) but it makes sense if you listen to the song
very closely. I alternate all of the strumming, which will also
help make more sense. Sorry if its a little confusing but its
hard to show rythem when you cant include timing notation.

E|---------------------------------------------------------------------
B|---------------------------------------------------------------------
G|-9--9999---9--99999---0--0000---0--00000---0--0000---0--00000--------
D|-5--5555---6--66666---9--9999---9--99999---5--5555---5--55555--------
A|----------------------7--7777---5--55555---2--2222---3--33000--------
E|---------------------------------------------------------------------

E|---------------------------------------------------------------------
B|---------------------------------------------------------------------
G|----------------999999-----------------------------------------------
D|-------------2-------------------------------------------------------
A|---4--4444---2--777777-----------------------------------------------
E|---2--2222---0--000000-----------------------------------------------

Part 2 (x2)

Here I just tried to show emphasis on the main strokes. Again
listen to the song to get the exact rythem. I start on an up beat
on the sets of 3, you can try that also as it might help. At the end
Im pretty sure that is the correct fretting, however it is very hard to
hear, so I didn't include rythem.

E|----------------------------------------------------------0----------
B|----------------------------------------------------------0----------
G|-44-444-444-444--44-444-444-444--44-444-444-444--444-00-0-0--16-14/--
D|-22-222-222-222--22-222-222-222--22-222-222-222--000-00-0-12-12-12/--
A|-22-222-222-222--22-222-222-222--22-222-222-222--222-22-0------------
E|-00-000-000-000--00-000-000-000--00-000-000-000----------------------


Part 3 (x2)

E|---------------------------------------------------------------------
B|---------------------------------------------------------------------
G|---------------------------------------------------------------------
D|-7-5------------8-7-5-----------7-5------------8-7-5-----------------
A|-----7-5--------------7-5-----------7-5--------------7-5-------------
E|---------7-5-3------------7-5-----------7-5-3------------7-5---------

E|---------------------------------------------------------------------
B|---------------------------------------------------------------------
G|---------------------------------------------------------------------
D|-7-5------------8-7-5------------------------------------------------
A|-----7-5--------------7-5-----------4444--4/7-7-(7)3333-------------
E|---------7-5-3------------7-5-------5555--5/8-8-(8)2222-------------

Part 4

The chord that is played starting on the G string 12 fret is picked
very fast, and it would be too confusing to try and include picking
rythems here. Again, use the song as reference.

E|---------------------------------------------------------------------
B|---------------------------------------------------------------------
G|---------------------------------------------------------------------
D|---------------------------------------------------------------------
A|-------0-5-7-0---------5-0-----7-5-0-------3--5----------------------
E|-0-5-7---------3-0-3-0-----3-0-------5-3-0-------3--5--5/8--5--3-5---

E|---------------------------------------------------------------------
B|---------------------------------------------------------------------
G|---------------------------------------------------------------------
D|---------------------------------------------------------------------
A|-------0-5-7-0---------5-0-----7-5-0-------3--5----------------------
E|-0-5-7---------3-0-3-0-----3-0-------5-3-0-------3--5--5/8--5--3-5---

E|-----------------------------------------------------14--------------
B|-----------------------------------------------------11--------------
G|-----------------------------------------------------12--------------
D|---------------------------------------------------------------------
A|-7-5-0-------6-4-0-------5-3-0-------4-2-0---------------------------
E|-------5-3-0-------4-2-0-------5-3-0-------4-2-0---------------------

E|---------------------------------------------------------------------
B|---------------------------------------------------------------------
G|---------------------------------------------------------------------
D|--------------------------------------------------------------------2
A|-------0-5-7-0---------5-0-----7-5-0-------3--5---------------------2
E|-0-5-7---------3-0-3-0-----3-0-------5-3-0-------3--5--5/8--5--3-5--0

Part 5 (about 5:28)

E|---------------------------------------------------------------------
B|---------------------------------------------------------------------
G|-00---0--2---00---12--11--7--2---00----12--11--7--2--5--8------------
D|-22---5--4---22--------------4---22---------------4--7--10-----------
A|-22---5--4---22---9---8---5--4---22----9---8---5--4--7--10-----------
E|-00---3--2---00---7---6---3--2---00----7---6---3--2--5--8---0--------

Part 6 (about 5:48) (x2)

E|---------------------------------------------------------------------
B|---------------------------------------------------------------------
G|-9-9-9-9-13-13-13p12-12-11-11-11-11h13-13-13-13p-9-9-9---------------
D|---------------------------------------------------------------------
A|---------------------------------------------------------------------
E|---------------------------------------------------------------------

Part 7 (about 6:07)

Guitar 1 (6:07) (repeated over and over again for guitar 2)

E|---------------------------------------------------------------------
B|---------------------------------------------------------------------
G|--9---9---9---9---9---9---9---9--------------------------------------
D|--14--14--14--14--14--14--14--14-------------------------------------
A|---------------------------------------------------------------------
E|---------------------------------------------------------------------

Guitar 2 (6:11)

E|----------------------------------------------------------8----------
B|------------------------------7-------------------8----10---10-9-----
G|-6---6-----------7------------------------------7---10---------------
D|---9---8-7---7--------------------7----------------------------------
A|-----------9---9---8--9-8-9-8---9------------------------------------
E|------------------------------------8--8-9-8-10----------------------

E|--2/13-13-----13-13-13----13-13-13--11-12-11--12-11--------10--------
B|----------------------------------------------------10/12------------
G|-----------12----------12-------------------------------------10-----
D|---------------------------------------------------------------------
A|---------------------------------------------------------------------
E|---------------------------------------------------------------------

E|---------------------------------------------------------------------
B|----------10-------12---13-13----------------------------------------
G|-11-10-11----11-10---------------------------------------------------
D|---------------------------------------------------------------------
A|---------------------------------------------------------------------
E|---------------------------------------------------------------------

Part 8 (about 7:07)

Guitar 1 (7:07) (starts as Guitar 1 from part 7 fades out)

E|---------------------------------------------------------------------
B|---------------------------------------------------------------------
G|-11-11-11-11-11-11-11h12-12-12-12/16-1612-12-11-11-11h12-12-12-129-
D|---------------------------------------------------------------------
A|---------------------------------------------------------------------
E|---------------------------------------------------------------------

Then repeat the following for the remainder of the song

E|---------------------------------------------------------------------
B|---------------------------------------------------------------------
G|-9/11-11/12-12-12-12/16-1612-12-11-11-11h12-12-12-129-9-9-9--------
D|---------------------------------------------------------------------
A|---------------------------------------------------------------------
E|---------------------------------------------------------------------

Guitar 2 (8:08) (Fades in so listen close)

E|-10-------------------------------0---0---0-------0------------------
B|-----8-8/12-12-13---------------------------7h8---12-10---12-12h13p12
G|--------------------9-12-12/9---7---7---7-------7------12------------
D|---------------------------------------------------------------------
A|---------------------------------------------------------------------
E|---------------------------------------------------------------------

E|---------------------------------------------------------------------
B|-13-12----------------12-15--------12h13p12h13p12--------------------
G|-------12----------12------------------------------------------------
D|----------14----14----------1514-----------------14-----------------
A|-------------15--------------------------------------15--------------
E|---------------------------------------------------------------------

E|---------------------------------------------------------------------
B|--------(SWEEP)-12-15----12------------------------------------------
G|------(SWEEP)-12---------------12------------------------------------
D|----(SWEEP)-14--------14----12---------------------------------------
A|--(SWEEP)-15-----------------------------------14-15-15-15-14--------
E|----------------------------------14-10-10/12------------------------

E|---------------------------------------------------------------------
B|---------------------------------------------------------------------
G|---------------------------------------------------------------------
D|-----------------------------------------12----------12--------------
A|-15-14h15p14-12-14-12/14-12------------------------------------------
E|----------------------------15-14b/15b14--14b/15b14--14b/15b14----

E|-----0----0----0-----------------------------------------------------
B|-----------------------------------------------------10-12/15-15/17--
G|------------------12p9-9-12p9-12p9-9-9-12p9-12p9-9-9-----------------
D|-12----12---12-------------------------------------------------------
A|---------------------------------------------------------------------
E|---------------------------------------------------------------------

E|-15-----------------------------------------------12/15-1512--------
B|-------------------------------15----15-----15-17--------------------
G|----16-14-16-14/16-14/16-14-16----16-----16--------------------------
D|---------------------------------------------------------------------
A|---------------------------------------------------------------------
E|---------------------------------------------------------------------

E|---------------------------------------------------------------------
B|---------------------------------------------------------------------
G|--11h12p11-----------------------------------------------------------
D|-----------14-12-----------------------------------------------------
A|-----------------15-14-----------------------------------------------
E|---------------------------------------------------------------------


I at least tried include strumming patterns considering I didn't
really do that for the Follow (1st movement) tab. Your best bet
would be to listen to the song and match the strumming patter that
Einzinger plays. Its not hard. Any comments, please send to
sp2886@hotmail.com. Thanks.


Get this song at amazon.com      Ebay     Ringtones Ringtones  


Learn to play: Songwriting, Piano, Harmonica, Guitar
More Incubus lyrics available at Muzikum

Related Incubus Tabs

Love Hurts Acoustic tabs
Drive4 tabs
Mexico tabs
Acqueous Transmission tabs
Anti - Gravity Love Song Acoustic tabs
Anti-Gravity Love Song tabs
Trouble In 4 tabs
Idiot Box tabs
Made For Tv tabs
Nowhere Fast tabs
Battlestar Scralatchtica tabs
Summer Romance Intro tabs
I Wish You Were Here tabs
Leech tabs
Favourite Things tabs
Idiotbox tabs
Clean2 tabs
Version tabs
Drive Corected tabs
Pistola tabs


Guitar Tabs









All tabs are property and copyright of their owners. All tabs provided for educational purposes only. Privacy Policy, DMCA

Online converter - videoconverter.com