Incubus

Echo (Version 2) Tabs



More from Incubus

Incubus Tabs
Incubus Chords
Incubus Bass
Incubus Lyrics

#-----------------------------PLEASE NOTE-------------------------------------#
#This OLGA file is the author's own work and represents their interpretation  #
#of the song. You may only use this file for private study, scholarship, or   #
#research. Remember to view this file in Courier, or some other monospaced    #
#font. See http://www.olga.net/faq/ for more information.                     #
#-----------------------------------------------------------------------------#



Subject: i/incubus/echo.tab


song: Echo
Artist: Incubus
Album: Morning View

comments and questions are welcomed.

Note: I think in this song is very hard to get the ideas of what
does the guitar play. Because of this my tab will be probably wrong,
but anyway I tried to tab everything that i heard.
Turn tunning to dropped D

Intro:
======
|---0---------------------------------------------------------|
|-------------------------------------------------------------|
|---7------7h9--7h9--9br---7---4---4--/7--7--4--4--4br--4---|
|---7--7h9-7----7----9br---7---4---4--/7--7--4--4--4br--4---|
|---5--7h9---------------------------2---------2--------------|
|-0---(0)------------(0)--------------------------------------|

Verse:
======
|-0--0------------0----0-------| I didn't waste time figuring out
|-0----0----------3------3-----| the verse, just play the chords
|-7------7--------4--------4---| and improvise some arpeggio.
|-7--------7------4------------| Sometimes just play the chord
|-5---------------2------------|
|------------------------------|

 








Pre-Chorus:
===========
|-2--2--2---1--1--1------------|
|-0--0--0---0--0--0------------|
|-4--4--4---2--2--2--....------|
|-5--5--5---3--3--3--....------|
|-5--5--5---3--3--3--....------|
|------------------------------|

Chorus:  play same thing as intro

Solo:
=====
To make your guitar sound similar to the one in the tape try to
low the tone or/and play it with wah-wah but keeping the pedal
down.

|-19-17-------------------------------------------------------|
|-------19-17-15-12----12-----------------------------15-17---|
|-------------------14--------------------------14-16---------|
|-----------------------------14-16-14----14-16---------------|
|-------------------------------------------------------------|
|-------------------------------------------------------------|

|----------------------------19-17----------------------------|
|-15---15-17-15-17-17/19-----------19-17----15----------------|
|----------------------------------------------16-14----------|
|-------------------------------------------------------------|
|-------------------------------------------------------------|
|-------------------------------------------------------------|

Play chorus again
and finish with this a few times
|-0---------------0----0-------|
|-0---------------0------0-----|
|-7---------------7--------7---|
|-7---------------7------------|
|-5---------------5------------|
|------------------------------|

 








That's all...
Get this song at amazon.com      Ebay     Ringtones Ringtones  


Learn to play: Songwriting, Piano, Harmonica, Guitar
More Incubus lyrics available at Muzikum

Related Incubus Tabs

Vitamin tabs
New Skin Acoustic tabs
Pardon Me Acoustic Intro tabs
Are You In Bass tabs
A Certain Shade Of Green tabs
When Incubus Attacks tabs
Drive7 tabs
Hilikus Solo tabs
Sick sad little world tabs
Happy Birthday tabs
Megalomaniac (2) tabs
Love Hurts tabs
Favorite Things tabs
Talk Show On Mute tabs
Summer Romance Intro tabs
Certain Shade Of Green tabs
Drive tabs
Dig Bass tabs
Pardon Me Intro tabs
Smile Lines tabs


Guitar Tabs









All tabs are property and copyright of their owners. All tabs provided for educational purposes only. Privacy Policy, DMCA