Incubus

Earth To Bella Part 1 Chords, Tabs



More from Incubus

Incubus Tabs
Incubus Chords
Incubus Bass
Incubus Lyrics

Title: Earth to Bella 1
Band: Incubus
Tabbed By: CRU53
Chords
C Fmaj7C E E7 C5 A5
E|--0------0---------0-----0----x----x-----|
B|--1------1---------0-----3----x----x-----|
G|--0------2---------1-----1----x----x-----|
D|--2------3---------2-----2----10---7-----|
A|--3------3---------2-----2----10---7-----|
E|--x------x---------0-----0----8----5-----|
C Fmaj7C
Earth to Bella
C Fmaj7C
you think you've got it all figured in
C Fmaj7C
Earth to Bella
C Fmaj7C E
everything you know is wrong
E
well, almost
C Fmaj7C
Earth to Bella
C Fmaj7C
i see where you are not listening
C Fmaj7C
I bear the burden
C Fmaj7C E
of being the voice the lets you know
(E)
we all grow old
E7
and before you swim you've gotta be ok
to say...
(heavy) ||: C5 A5 :|| x4
C Fmaj7C
Earth to Bella
C Fmaj7C
The world can be an unfriendly place
C Fmaj7C
so hold your head up
C Fmaj7C E
do your best to save some face
(E)
its not so hard
E7
just undo yourself and see the second sun
C5
and say
(heavy) ||: C5 :|| x 8
||: C5 A5 :|| x12
Ok to sink , I'm Ok to sink, Ok to sink
Outro
CB Fmaj7 C
e|------------| ||----0-------0------||-----0--------0-------||
B|-1-----1----| ||------1-------1----||-------1--------1-----||
G|---0-----0--| ||O-------2---------O||O--------0-----------O||
D|----0-------| ||O---3-----3-------O||O-----------2--------O|| Repeat
A|-2---2------| ||-------------------||-----3----------------|| to Fade
E|------------| ||-------------------||----------------------||



Get this song at amazon.com      Ebay     Ringtones Ringtones  


Learn to play: Songwriting, Piano, Harmonica, Guitar
More Incubus lyrics available at Muzikum

Related Incubus Chords

Blood On The Ground chords
I Miss You chords
Glass chords
11 Am chords
Circles chords
Diamonds And Coal chords
A Certain Shade Of Green chords
Nice To Know You chords
Drive chords
11 Am (Version 3) chords
Earth To Bella Part 2 chords
Dig chords
Echo (Version 3) chords
Southern Girl chords
Light Grenades chords
Pardon Me chords
Pantomime chords
Oil And Water chords
Isadore chords
Pendulous Threads chords


Guitar Tabs









All tabs are property and copyright of their owners. All tabs provided for educational purposes only. Privacy Policy, DMCA