Incubus

Drive6 Tabs



More from Incubus

Incubus Tabs
Incubus Chords
Incubus Bass
Incubus Lyrics

drive6.tab#----------------------------------PLEASE NOTE--------------------------------#

#This file is the author's own work and represents their interpretation of the#

#song. You may only use this file for private study, scholarship, or research.#

#-----------------------------------------------------------------------------#

#-- File created with Instab - http://www.pconline.com/~smcarey/instab.html --#

#-----------------------------------------------------------------------------#



Author/Artist: Incubus

Title: Drive

Album: Make Yourself

Transcribed by: st2012

Email: st2012@hotmail.com



all the tabs i've seen for this are incorrect. here's the right way to play it.



------0-0---------------0-0---------------------------------------------------

------8-8-----7-7-------5-5---------------------------------------------------

------0-0-----7-7-------4-4------0-0-0----------------------------------------

------9-9-----5-5-----5-5-5------5---5----------------------------------------

---7--7-7---7-7-7---3---3-3---------------------------------------------------

-0----------------------------5--5--------------------------------------------

pre-chorus



------0-0---0-0---0-0-0-0-0---------------------------------------------------

------5-5---2-2---0-2p0-2p0---------------------------------------------------

------4-4---0-0---0-0-0-0-0---------------------------------------------------

---5--5-5---2-2---2-2-2-2-2---------------------------------------------------

-3----3-3---------------------------------------------------------------------

------------------------------------------------------------------------------

thats pretty much it. most of the other tabs have the solo correct so i



------------------------------------------------------------------------------

------------------------------------------------------------------------------

------------------------------------------------------------------------------

------------------------------------------------------------------------------

------------------------------------------------------------------------------

------------------------------------------------------------------------------

wont bother tabbing it.







Get this song at amazon.com      Ebay     Ringtones Ringtones  


Learn to play: Songwriting, Piano, Harmonica, Guitar
More Incubus lyrics available at Muzikum

Related Incubus Tabs

Certain Shade Of Green Acoustic tabs
Pardon Me Studio tabs
Admiration tabs
Drive7 tabs
Magic Medicine tabs
Pardon Me Acoustic tabs
Anti Gravity Song tabs
New Skin tabs
Vitamin tabs
Deep Inside Solo tabs
Drive6 tabs
Glass Bass tabs
Drive Crd tabs
11 Am (Version 2) tabs
Consequence (Version 2) tabs
A Crow Left Of The Murder tabs
New Skins tabs
Medium tabs
In The Company Of Wolves tabs
Clean Bass tabs


Guitar Tabs









All tabs are property and copyright of their owners. All tabs provided for educational purposes only. Privacy Policy, DMCA