Incubus

Drive2 Crd Tabs



More from Incubus

Incubus Tabs
Incubus Chords
Incubus Bass
Incubus Lyrics

drive2.crdIncubus / Drive (The real one)

Tabbed by Gregory Moore



Intro and Verse and Chorus : (I don't know how to do the Pre-chorus)



E |--------0----0---0---0------------|

B |--------8----7---0---0------------|

G |--------9----7---5---2------------|

D |----9---9----5---5---2------------|

A |--------7----0---3---0------------|

E |--0-------------------------------|



Lyrics:



Verse

Sometimes, I feel the fear of

uncertainty stinging clear.

And I can't help but ask myself how much

I'll let the fear take the wheel and steer.



Pre-Chorus

It's driven me before, and it seems to have a

vague, haunting mass appeal.

But lately I am beginning to find that

I should be the one behind the wheel.



Chorus

Whatever tomorrow brings, I'll

be there with open arms and open eyes.

Whatever tomorrow brings, I'll

be there, I'll be there.



Verse

So if I decide to waiver my chance

to be one of the hive

will I choose water over wine and hold

my own and drive?



Pre-Chorus

It's driven me before and it seems to be the

way that everyone else gets around.

But lately I'm beginning to find that

when I drive myself my light is found.



Chorus

So whatever tomorrow brings, I'll

be there with open arms and open eyes. Yeh.

Whatever tomorrow brings, I'll

be there, I'll be there.



Solo Taken From : Drive7



E |-------------------------------------------------------|

B |----------12-10-8*-10---------------------8-10-12-12---|

G |-9-9-9-9*-------------7*-9-9-7*-9-9*-9-9*--------------|

D |-------------------------------------------------------|

A |-------------------------------------------------------|

E |-------------------------------------------------------|



E |----10-------------------------------------------------|

B |-10----12-10-12------------10*-10-8-8------------------|

G |----------------9\7*-9-9-7------------9-9-7------------|

D |--------------------------------------------9-7-7/9----|

A |-------------------------------------------------------|

E |-------------------------------------------------------|



Note: This is heard throughout the background

E |-12----12----12----12----------------------------------|

B |----12----12----12----12-------------------------------|

G |-------------------------------------------------------|

D |-------------------------------------------------------|

A |-------------------------------------------------------|

E |-------------------------------------------------------|



Pre-Chorus

Would you choose water over wine....

hold the wheel and drive?



Chorus

Whatever tomorrow brings, I'll

be there with open arms and open eyes.

Whatever tomorrow brings, I'll

be there, I'll be there.







Any Problems e-mail me at : greg.moore@radley.org.uk



Get this song at amazon.com      Ebay     Ringtones Ringtones  


Learn to play: Songwriting, Piano, Harmonica, Guitar
More Incubus lyrics available at Muzikum

Related Incubus Tabs

A Certain Shade Of Green Ver 3 tabs
Warning tabs
Oil And Water tabs
Smokin Da Herb tabs
Neither Of Us Can See tabs
Consequence tabs
Smoking The Herb Again tabs
Talk Show On Mute tabs
Privilege tabs
Drive (Version 3) tabs
Nowhere Fast Bridge tabs
Happy Birthday tabs
Zee Deveel tabs
Morning View tabs
Warning Correct tabs
Stellar Corrected tabs
11 Am (Version 2) tabs
Calogne tabs
Trouble In 4 tabs
Drive6 tabs


Guitar Tabs









All tabs are property and copyright of their owners. All tabs provided for educational purposes only. Privacy Policy, DMCA