Incubus

Drive Tabs



More from Incubus

Incubus Tabs
Incubus Chords
Incubus Bass
Incubus Lyrics

simplified version of one of the best
songs by incubus.

standard tunning

LISTING FOR TIMING AND STRUMMING

intro/verse/chorus
e|------------------------------------
B|-----8-8-8---7-----5-5-5---5-5-5----
G|-----0-0-9---7-----4-4-4---4-4-4----
D|-----9-9-0---5-----5-5-5---5-5-5----
A|---7-7-7-7---7---3-3-3-3---0-0-0----
E|-O-------------------------5-5-5----


prechorus (may need to strum some more)
e|-----------0-0-0-0---0-0-0-0---0-0-0-0---
B|-0-0-0-0---2-2-2-2---3-3-3-3---2-2-2-2---
G|-0-0-0-0---0-0-0-0---0-0-0-0---0-0-0-0---
D|-2-2-2-2---2-2-2-0---2-2-2-2---2-2-2-2---
A|-3-3-3-3---0-0-0-0---3-3-3-3---0-0-0-0---
E|-----------------------------------------
second time play
once. its also
the ending note


solo (something like this)
e|------------7/-5/-3--5--------------------
B|-5-5-5-5-5-------------3/-5-------5---5---
G|-----------------------------7-7----7---7-
D|------------------------------------------
A|------------------------------------------
E|------------------------------------------


e|-5/-7--7--5--10--7--5---7-----
B|----------------------5---5---
G|----------------------------7-
D|------------------------------
A|------------------------------
E|------------------------------

e|-5---5/-3---------------------
B|-----------5/-3---------------
G|-----------------4/-2---2/-4--
D|------------------------------
A|------------------------------
E|------------------------------


thats basically it, have fun and imporvise
it. have a feel for it and play it how you
feel comfortable. its all about being able to
have fun with a great song by a great band.
Any suggestions or comments, send to:
peraza_jr@soccer.com
Get this song at amazon.com      Ebay     Ringtones Ringtones  


Learn to play: Songwriting, Piano, Harmonica, Guitar
Also available at Muzikum: Incubus - Drive lyrics

Related Incubus Tabs

Out From Under tabs
Vitamin Bass tabs
Pendolous Threads Bass tabs
Answer tabs
Southern Girl tabs
Summer Romance tabs
Nowhere Fast Bridge tabs
Megalomaniac tabs
Drive Crd tabs
Drive Corected tabs
Under My Umbrella Bass tabs
Nebula tabs
11am2 tabs
Drive (Version 3) tabs
Make A Move tabs
The Answer tabs
Consequence tabs
Rogues tabs
Agoraphobia tabs
Certain Shade Of Green Acoustic Live tabs


Guitar Tabs









All tabs are property and copyright of their owners. All tabs provided for educational purposes only. Privacy Policy, DMCA