Incubus

Drive Chords, Tabs



More from Incubus

Incubus Tabs
Incubus Chords
Incubus Bass
Incubus Lyrics

#-----------------------------PLEASE NOTE-------------------------------------#
#This OLGA file is the author's own work and represents their interpretation  #
#of the song. You may only use this file for private study, scholarship, or   #
#research. Remember to view this file in Courier, or some other monospaced    #
#font. See http://www.olga.net/faq/ for more information.                     #
#-----------------------------------------------------------------------------#



Subject: i/incubus/drive.tab

Drive by Incubus

Album Info:
-------------------------------------
 Song:    Drive
 Artist:  Incubus
 Album:   Make yourself
 Version: Album version (acoustic version is the same)
 Sony/Epic; ASIN: B0000296JB
-------------------------------------
By:

David Mazur [d_mazur@rocketmail.com] (update)
 Robert Seder [robertcseder@yahoo.com] (original)
 Quy Nguyen [blackninja8@cs.com] (solo)

I made a minor change in the inversion of the E minor
used in the verse based on the video that came out
recently.  I always thought the open position E minor
sounded funny, and seeing Mike play his Em at the 7th
fret verified my suspicion.

------------------------------------------------------Phrase
I: (Verse & Chorus - most of the song)

Emn            Dsus4/E  Cmaj7         Asus2
E|-----0---0-0-----0----|------0---0-0-------
B|-----8---8-8-----7----|------0---0-0----0--
G|-----7-----------7----|------4---4-4----4--
D|-----5----------------|----2------------2--
A|---7-7----------------|--3------------0----
E|-0---0---------0------|--------------------

-----------------------------------------------------
Phrase II: (Pre-Chorus)

It's driven me before and it seems to have
   Cmaj7                 A7
E|------0--0-0----0--|-------0--0-0----0-----
B|------0--0-0----0--|-------2--2-2----3-----
G|------4--4-4----4--|-------0--0-0----0-----
D|------2--2-2----2--|-------2--2-2----2-----
A|--3-----------3----|---0-----------0-------
E|-------------------|-----------------------

 








a vague          haunting mass appeal
   Csus2                    A7
E|------0--0-0----0--|-------0--0-0----0-----
B|------3--3-3----3--|-------2--2-2----2-----
G|------0--0-0----0--|-------0--0-0----0-----
D|------2--2-2----2--|-------2--2-2----2-----
A|--3-----------3----|---0-----------0-------
E|-------------------|-----------------------

Solo (by Quy Nguyen (blackninja8@cs.com)):
E----------7--5--3--5-------------------------
B--5-5-5-5-------------3--5--5--3--5--5--5-5--
G---------------------------------------------
D---------------------------------------------
A---------------------------------------------
E---------------------------------------------

E-3--5-7-7-5-10-7-5-7-
B---------------------
G---------------------
D---------------------
A---------------------
E---------------------

E--------------5-5-3-3-0------------------
B-5-3-3-5-5-3-------------5-3-------------
G------------------------------4-2-2h4-4--
D-----------------------------------------
A-----------------------------------------



Copyright (c) 2001 by OLGA, Inc.


Subject:  Correction to Em7 chord form used in "Drive" by Incubus


I've been fooling around with this, and this is definitely the
actual form used in the song.  With the drone notes hit correctly,
it's dead on. Still not sure about the fourth chord in the chorus
progression (played under the words "With open arms..."), so any
suggestions are appreciated.  Oh yeah, and I'm supposed to remind
you that this chord didn't come from a copyrighted source.  It didn't.
Mine, all mine.

E------0-----
B------8-----
G------9-----
D------0-----
A------7-----
E------0-----When played, this is sort of arpeggiated, starting with
the octave Es at the bottom.

 








Get this song at amazon.com      Ebay     Ringtones Ringtones  


Learn to play: Songwriting, Piano, Harmonica, Guitar
Also available at Muzikum: Incubus - Drive lyrics

Related Incubus Chords

Pardon Me chords
Dig chords
Drive chords
11 Am chords
Earth To Bella Part 1 chords
A Certain Shade Of Green chords
Light Grenades chords
Isadore chords
Southern Girl chords
Glass chords
Talk Shows On Mute chords
If Not Now, When? chords
Promises, Promises chords
Diamonds And Coal chords
Circles chords
Earth To Bella Part 2 chords
Pantomime chords
Nice To Know You chords
Oil And Water chords
Pendulous Threads chords


Guitar Tabs









All tabs are property and copyright of their owners. All tabs provided for educational purposes only. Privacy Policy, DMCA