Incubus

Drive Bass Tabs



More from Incubus

Incubus Tabs
Incubus Chords
Incubus Bass
Incubus Lyrics



Intro/Chorus
G|--------------------------|
D|--------------------------|
A|-------------3333---------|
E|-0-0-3-0-3-5------5-5-5-3-|

Verse
G|---------------|
D|---------------|
A|-------3-3-----|
E|-0-0-3-----5-0-|

Pre-Chorus
G|-------------|
D|-------------|
A|-3-3-3-------|
E|-------5-5-5-|

Fill before last chorus
G|-------|
D|-77-77-|
A|-------|
E|-------|



Get this song at amazon.com      Ebay     Ringtones Ringtones  


Learn to play: Songwriting, Piano, Harmonica, Guitar
Also available at Muzikum: Incubus - Drive lyrics

Related Incubus Bass Tabs

Talk Shows On Mute bass
Have You Ever bass
Admiration bass
Anti-gravity bass
Pardon Me (4 String) bass
Are You In bass
Privilege bass
Under My Umbrella(complete Five String) bass
Out From Under bass
Da Warmth bass
Science bass
Pistola bass
Pardon Me bass
A Kiss To Send Us Off bass
New Skin 4 Strng bass
Wish You Were Here[100% Correct] bass
Incubus-redefine bass
Speak Free Intro bass
The Answer bass
A Crow Left Of The Murder bass


Guitar Tabs









All tabs are property and copyright of their owners. All tabs provided for educational purposes only. Privacy Policy, DMCA