Incubus

Drive Live Bass Tabs



More from Incubus

Incubus Tabs
Incubus Chords
Incubus Bass
Incubus Lyrics




This is the live version of drive from the Alive at Red Rocks DVD.
It is Awesome.
In the begining he plays some cool solo stuff i didn't tab out.

Intro (Before Vocals)
G:---------------7---7---------------9---9------------
D:-----5---5---5---5-------5-----5-----7--------------
A:-7-7---7---7---------3-3---3-3----------------------
E:---------------------------------5------------------
On the fourth time
G:---------------7---7--------------------------------
D:-----5---5---5---5---------------------------5-5-5-5
A:-7-7---7---7---------3-3-3-3-5-5-5-5-7-7-7-7--------
E:----------------------------------------------------
When Vocals Kick In
G:----------------------------------------------------
D:-----------555-----------7777-----------------------
A:-7-7-7--777----3-3-3--333---------------------------
E:----------------------------------------------------
On Fourth Time
G:----------------------------------------------------
D:-----------555-------------------------5-5-5-5------
A:-7-7-7--777----3-3-3-3-5-5-5-5-7-7-7-7--------------
E:----------------------------------------------------
Pre-Chorus (Play three times)
G:----------------------------------------------------
D:---5--5---------------------------------------------
A:-3---3-3--------------------------------------------
E:--------5-5-5--555----------------------------------
Chorus
G:---------------7---7---------------9---9------------
D:-----5---5---5---5-------5-----5-----7--------------
A:-7-7---7---7---------3-3---3-3----------------------
E:---------------------------------5------------------
On the fourth time
G:---------------7---7--------------------------------
D:-----5---5---5---5---------------------------5-5-5-5
A:-7-7---7---7---------3-3-3-3-5-5-5-5-7-7-7-7--------
E:----------------------------------------------------



Get this song at amazon.com      Ebay     Ringtones Ringtones  


Learn to play: Songwriting, Piano, Harmonica, Guitar
Also available at Muzikum: Incubus - Drive Live lyrics

Related Incubus Bass Tabs

Pantomime bass
Azwethinkweiz bass
Certain Shade Of Green bass
Nice To Know You (4 String) bass
Morning View bass
Shaft bass
Glass bass
Monuments And Melodies bass
Anna Molly bass
Deep Inside bass
Make A Move bass
Wish You Where Here bass
Talk Show On Mute bass
Take Me To Your Leader bass
Vitamin bass
New Skin 4 Strng bass
Warning bass
Aqueous Transmission (Version 3) bass
Version bass
Consequence bass


Guitar Tabs









All tabs are property and copyright of their owners. All tabs provided for educational purposes only. Privacy Policy, DMCA