Incubus

Dig Tabs



More from Incubus

Incubus Tabs
Incubus Chords
Incubus Bass
Incubus Lyrics



Incubus - Dig

Light Grenades

Tabbed by: Tom Lavery

email: webmaster at tabs-database.com.com

AIM: railmaster123



Hope you all enjoy this tab as much as I enjoy this song!





Standard Tuning (EADGbe)



Intro: [delay/light distortion]



e|---------16-----------------16-----------------16--------------------16-----|

b|----16------16---16----16------16---16----14------14----14-----14-------14--|

G|----------------------------------------------------------------------------|

D|-14---14------14-----14--14------14----16---16------16----------------------|

A|------------------------------------------------------------16----16--------|

E|----------------------------------------------------------------------------|



Also plays this in there... listen carefully



-------18p16-----|

---14--------14--|

-----------------|

-----------------|

-16--16----------|

-----------------|



Verse:

Chords



Emaj F#maj C#min

-0-- -2-- -4--|

-0-- -2-- -5--|

-1-- -3-- -6--|

-2-- -4-- -6--|

-2-- -4-- -4--|

-0-- -2-- ----|



We all have a weakness

But some of ours are easier to identify. Look me in the eye

& ask for forgiveness;

we'll make a pact to never speak that word again.

Yes, you are my friend.

We all have something that digs us,

at least we dig each other.

So when weakness turns my ego up

I know you'll count on the me from yesterday.





Chorus:

Lead guitar

e|------------------------------------------------/11---------11------9-9h11-11--|

b|----11--------11-------11---11-11-----11---11----------------------------------|

g|-13-----13-13--------8----8-------8--------------------------------------------|

D|-------------------------------------------------------9-------9---------------|

A|---------------------------------------------------------11--------------------|

E|-------------------------------------------------------------------------------|



------------------------------------------9--------------------------------------|

----11--------11-------11---11-11------------------------------------------------|

-13-----13-13--------8----8-------8----------11----11----------------------------|

--------------------------------------11-----------11----------------------------|

---------------------------------------------------9---11-11-11\-9-9-9-9---------|

---------------------------------------------------------------------------------|



----------------------------------------------------12---12-11---9---------------|

----11--------11-------11---11-11-----11~~~~11--12-------------------------------|

-13-----13-13--------8----8-------8--------------------9-------9-----------------|

---------------------------------------------------------------------------------|

---------------------------------------------------------------------------------|

---------------------------------------------------------------------------------|



-----------------------------------------14------14------14~~~~------------------|

------11--------11-----11---11-11-----12-----12-----12---12~~~~------------------|

-13-----13-13--------8----8-------8----------------------11~~~~------------------|

---------------------------------------------------------------------------------|

---------------------------------------------------------------------------------|

---------------------------------------------------------------------------------|



Chords: (play in order)



Emaj Bmaj F#maj C#min Emaj Bmaj Emaj F#maj

-0-- -2-- -2-- -4-- -0-- -2-- -0-- -2--

-0-- -4-- -2-- -5-- -0-- -4-- -0-- -2--

-1-- -4-- -3-- -6-- -1-- -4-- -1-- -3--

-2-- -4-- -4-- -6-- -2-- -4-- -2-- -4--

-2-- -2-- -4-- -4-- -2-- -2-- -2-- -4--

-0-- ---- -2-- ---- -0-- ---- -0-- -2--



If I turn into another

dig me up from under what is covering

the better part of me.

Sing this song

remind me that we'll always have each other

when everything else is gone.





Verse:

We all have a sickness

that cleverly attaches & multiplies

No matter how we try.

We all have someone that digs at us,

at least we dig each other.

So when sickness turns my ego up

I know you'll act as a clever medicine.





Chorus:

If I turn into another

dig me up from under what is covering

The better part of me.

Sing this song!

Remind me that we'll always have each other

when everything else is gone.

OK, each other when everything else is gone.Added by tabs-database.com and our distinguished partners
Get this song at amazon.com      Ebay     Ringtones Ringtones  


Learn to play: Songwriting, Piano, Harmonica, Guitar
Also available at Muzikum: Incubus - Dig lyrics

Related Incubus Tabs

Mexico tabs
Magic Medicine tabs
Happy Birthday tabs
Pantomime tabs
Drive tabs
Talk Show On Mute Solo tabs
Hilikus tabs
A Crow Left Of The Murder tabs
Pardon Me Acoustic tabs
Dig Bass tabs
Warning Correct tabs
Drive2 Crd tabs
Beware Criminal tabs
You Are Stellar tabs
Talk Show On Mute tabs
Isadore tabs
Make Your Self tabs
Wish You Were Here tabs
Aqueous Tranmission tabs
Made For Tv Movie tabs


Guitar Tabs









All tabs are property and copyright of their owners. All tabs provided for educational purposes only. Privacy Policy, DMCA