Incubus

Dig Bass Tabs



More from Incubus

Incubus Tabs
Incubus Chords
Incubus Bass
Incubus Lyrics

Artist: Incubus
Song: Dig
Album: Light Grenades
Tabbed by Konrad Anders (civic@jetzweb.de)
Tuning: Standard
Ben seems to use a 5-string, but you'd need the low B-string just one time.
It's possible to play with D-tuning too, but more easy to use standard tuning.
p - pull off
h - hammer
/ - slide up
- slide down
~ - let ring
Verse 1 (Bass starts at 0:37):
G|-----------------------------------------|
D|-----------------------------------------| x4
A|-----------------9h11-9-9h11-------------|
E|--0-0h2-2h4-4-----------------9-9-11---|
Chorus 1:
G|---------------------------|---------------------------|
D|--2--1---------------------|--2--1---------------------|
A|--------2~-----------------|--------2~-----------------|
E|------------2-2-0-0-0-0-0--|------------0-0-2-2-2-2-2--|
G|------------------------------------|--------------------------------|
D|--2--1-------4--2-1-----------------|--2--1--------------------------|
A|--------2~----------2-4--2-2--------|--------2~----------------------|
E|-----------------------------4-0-0--|------------0--2/4--2---0/15--|
Preverse:
G|-----------------------------------------|
D|-----------------------------------------| x2
A|-----------------9h11-9-9h11-------------|
E|--0-0h2-2h4-4-----------------9-9-11---|
Verse 2:
G|-----------------------------------------|
D|-----------------------------------------| x6
A|-----------------9h11-9-9h11-------------|
E|--0-0h2-2h4-4-----------------9-9-11---|
5th time is a little bit different: (you can play this on the B-string)
G|-----------------------------------------|
D|--2-2-1-2-1------------------------------|
A|-----------------9h11-9-9h11-------------|
E|------------------------------9-9-11---|
(B|--5-5-4-5-4------------------------------|)
Chorus 2:
G|--------------------------|----------------------|--------------------------------|
D|--2--1--------------------|--2--1----------------|--2--1------4-2-1---------------|
A|--------2~----------------|--------2~------------|--------2~--------2-4-2-2-------|
E|------------2-2-0-0-0-0-0-|------------0--2/4--2-|--------------------------4-0-0-|
G|-----------------------|-----------------------|
D|--2--1-----------------|--2--1-----------------|
A|--------2~-------------|--------2~-------------|
E|------------0--2/4--2--|------------0--2/4--2--|
Bridge:
G|-----------------------------------------------------------------------------|
D|-----------------------------------------------------------------------------|
A|-------4h6-6-6-6-6-6-6-6-6-6-6-6-6-6-4---------------------------------------|
E|-4-6-6---------------------------------6-6-4-4-4-4-4-4-4-4-4-4-4-4-4-4-2-4-2-|
G|--------------------------------------------------------------------|
D|--------------------------------------------------------------------|
A|-2-2-2-2-2-2-2-2-2-2-2-2-2-2-1-1-1----------------------------2-4-4-|
E|------------------------------------4-4-4-4-4-4-4-2-4-4-4-4-0-------|
G|-------------------4h6-4-4-4h5-5-5-6-5--------|
D|---------------4-6---------------------6-4----|
A|-2-2-2-2-2-2-4--------------------------------|
E|----------------------------------------------|
"Oh, oh..."
G|--------------------------------4-6-6-4-4-------------|
D|-----6~-4~------------6~-4~-4-4-----------6-6-4-4-----|
A|--7~-------4-6-4---7~---------------------------------|
E|------------------------------------------------------|
G|---------9---------------------------6-----------------------|
D|----------------6--6-6-4-6-6--4--4-4---4---------------------|
A|--7--7-7---7-7-----------------------------4--4-4-6-6-4-4----|
E|-------------------------------------------------------------|
G|---------9----------------------------------4-6-6-6-4----------|
D|---------------4h6--6-6-4-6-6--4--4-4-4-4-4-----------6-4------|
A|--7--7-7---7-7--------------------------------------------6-4--|
E|---------------------------------------------------------------|
Chorus 3:
G|---------------------------|--------------------------|
D|--2--1---------------------|--2--1--------------------|
A|--------2~-----------------|--------2~----------------|
E|------------2-2-0-0-0-0-0--|------------0--2/4--2-----|
G|------------------------------------------|-----------------------|
D|-----4--2--1-------4--2-1-----------------|--2--1-----------------|
A|-------------2~----------2-4--2-2---------|--------2~-------------|
E|-2-4-------------------------------4-0-0--|------------0--2/4--2--|
G|-----------------------------|-----------------------------|--------------|
D|-----4--2--1-----------------|-----4--2--1-----------------|---2--1-------|
A|--------------2~-------------|--------------2~-------------|---------2~---|
E|-2-4--------------0--2/4--2--|-2-4--------------0--2/4--2--|--------------|
Enjoy!



Get this song at amazon.com      Ebay     Ringtones Ringtones  


Learn to play: Songwriting, Piano, Harmonica, Guitar
Also available at Muzikum: Incubus - Dig lyrics

Related Incubus Bass Tabs

Wish You Where Here bass
The Warmth bass
A Certain Shades Of Green [live] bass
Familiar bass
Da Warmth bass
Steller Make Yourself bass
Have You Ever bass
Made For Tv Movie bass
Megalomaniac Perfect With All Fills bass
Glass bass
New Skin bass
Aswethinkweiz bass
Sick sad little world bass
Agoraphobia bass
New Skin 4 String bass
Nice To Know You bass
Favorite Things bass
Smile Lines bass
Blood On The Ground bass
Privilege bass


Guitar Tabs









All tabs are property and copyright of their owners. All tabs provided for educational purposes only. Privacy Policy, DMCA