Incubus

Consequence Tabs



More from Incubus

Incubus Tabs
Incubus Chords
Incubus Bass
Incubus Lyrics

Incubus: Consequence



Standard-Tuning



Intro & Strophe:

(flanger)

E----------------------------------------------------------------

B-------------0----0-------------0-----0-----0----0--------------

G----------13------13\---------8-------8\----7----7/-------------

D--------0---------0---------0---------0-----0----0--------------

A-----11-----------11\-----6-----------6\----5----5/-------------

E--12--------------12\---7-------------7\----6----6/-------------



"Blink, and you miss a beat...."



E----------------------------------------------------------------

B------------0-----0-------------0----------------0----0---------

G---------13-------13\---------8---8--------------4----4/--------

D-------0----------0---------0--------------0-----0----0---------

A----11------------11\-----6--------------5-------2----2/--------

E-12---------------12\---7------------5-6------5--3----3/--------



"Think, that you're on the brink?..."



E----------------------------------------------------------------

B-------------0----0-------------0-----0-----0----0--------------

G----------13------13\---------8-------8\----7----7/-------------

D--------0---------0---------0---------0-----0----0--------------

A-----11-----------11\-----6-----------6\----5----5/-------------

E--12--------------12\---7-------------7\----6----6/-------------



"Consequence you'll see will be stranger..."

(distortion)

E----------------------------------------------------------------

B-------------0----0-------------0-----0----0--0---0----0--------

G----------13------13\---------8---8---7----7--7---4----4--------

D--------0---------0---------0---------0----0--0---0----0--------

A-----11-----------11\-----6-----------5----5--5---2----2--------

E--12--------------12\---7-------------6----6--6---3----3--------



"Situation has a stink..." "...son becomes a"



1. Refrain



E-0--0-0-0--0-0-0--0-0-0--0-0-7--7-7-7--7-7-6--6-6-3--3-3--------

B-0--0-0-0--0-0-0--0-0-0--0-0-7--7-7-7--7-7-6--6-6-3--3-3--------

G-1--1-1-1--1-1-1--1-1-1--1-1-8--8-8-8--8-8-7--7-7-4--4-4--------

D-2--2-2-2--2-2-2--2-2-2--2-2-9--9-9-9--9-9-8--8-8-5--5-5--------

A-2--2-2-2--2-2-2--2-2-2--2-2-9--9-9-9--9-9-8--8-8-5--5-5--------

E-0--0-0-0--0-0-0--0-0-0--0-0-7--7-7-7--7-7-6--6-6-3--3-3--------



"man...."



Strophe



2. Refrain

E-0--0-0-0--0-0-0--0-0-0--0-0-7--7-7-7--7-7-7--7-7-6--6-6--------

B-0--0-0-0--0-0-0--0-0-0--0-0-7--7-7-7--7-7-7--7-7-6--6-6--------

G-1--1-1-1--1-1-1--1-1-1--1-1-8--8-8-8--8-8-8--8-8-7--7-7--------

D-2--2-2-2--2-2-2--2-2-2--2-2-9--9-9-9--9-9-9--9-9-8--8-8--------

A-2--2-2-2--2-2-2--2-2-2--2-2-9--9-9-9--9-9-9--9-9-8--8-8--------

E-0--0-0-0--0-0-0--0-0-0--0-0-7--7-7-7--7-7-7--7-7-6--6-6--------

2x

E-0--0-0-0--0-0-0--0-0-0--0-0-7--7-7-7--7-7-6--6-6-3--3-3--------

B-0--0-0-0--0-0-0--0-0-0--0-0-7--7-7-7--7-7-6--6-6-3--3-3--------

G-1--1-1-1--1-1-1--1-1-1--1-1-8--8-8-8--8-8-7--7-7-4--4-4--------

D-2--2-2-2--2-2-2--2-2-2--2-2-9--9-9-9--9-9-8--8-8-5--5-5--------

A-2--2-2-2--2-2-2--2-2-2--2-2-9--9-9-9--9-9-8--8-8-5--5-5--------

E-0--0-0-0--0-0-0--0-0-0--0-0-7--7-7-7--7-7-6--6-6-3--3-3--------



Interlude:



E----------------------------------------------------------------

B----------------------------------------------------------------

G-9--9-9-9-7--7----7-7-7-7-----9--9-9-9-7--7----7-7-7-7----------

D-9--9-9-9-8--7----7-7-7-7-6---9--9-9-9-8--7----7-7-7-7-6-------- 2x

A-7--7-7-7-8--5----5-5-5-5-6---7--7-7-7-8--5----5-5-5-5-6--------

E-7--7-7-7-6--5----5-5-5-5-4---7--7-7-7-6--5----5-5-5-5-4--------





E--7-7---7-7---7-7---7-7---6-6---6-6---6-6---3-3-3---------------

B--7-7---7-7---7-7---7-7---6-6---6-6---6-6---3-3-3---------------

G--8-8---8-8---8-8---8-8---7-7---7-7---7-7---4-4-4---------------

D--9-9---9-9---9-9---9-9---8-8---8-8---8-8---5-5-5---------------

A--9-9---9-9---9-9---9-9---8-8---8-8---8-8---5-5-5---------------

E--7-7---7-7---7-7---7-7---6-6---6-6---6-6---3-3-3---------------



Solo:

(2. Gitarre spielt das Interlude)



1 step up

E----^-----------------------------------------------------------

B--9-|~~~~~~~~~~~~~~~~~~~~~~~~~~~~~~~~~~~~~~~~~~~~~~~~~~~~~~~~~~~

G--11|~~~~~~~~~~~~~~~~~~~~~~~~~~~~~~~~~~~~~~~~~~~~~~~~~~~~~~~~~~~

D----------------------------------------------------------------

A----------------------------------------------------------------

E----------------------------------------------------------------



(release) 1 step up

E---|-----------------------------^------------------------------

B---|-----------------------------|~~~~~~~~~~~~~~~~~~~~~~~~~~~~~~

G--(11)------------------------16-|~~~~~~~~~~~~~~~~~~~~~~~~~~~~~~

D----------------------------------------------------------------

A----------------------------------------------------------------

E----------------------------------------------------------------



Refrain



Outro:

1/2 step up, then release

E---------------------------------------------------------^------

B---------------------------------------------------------|------

G-9--9-9-9-7--7----7-7-7-7-----9--9-9-9-7--7----7-7-7-7---|------

D-9--9-9-9-8--7----7-7-7-7-6---9--9-9-9-8--7----7-7-7-7-6-|------ 2x

A-7--7-7-7-8--5----5-5-5-5-6---7--7-7-7-8--5----5-5-5-5-6-|------

E-7--7-7-7-6--5----5-5-5-5-4---7--7-7-7-6--5----5-5-5-5-4--------

Get this song at amazon.com      Ebay     Ringtones Ringtones  


Learn to play: Songwriting, Piano, Harmonica, Guitar
Also available at Muzikum: Incubus - Consequence lyrics

Related Incubus Tabs

Drive4 tabs
Sick sad little world tabs
Morning View tabs
New Skin Acoustic tabs
Smile Lines tabs
Clean Bass tabs
Rogues Bass tabs
Monuments And Melodies tabs
Drive5 tabs
Under My Umbrella Bass tabs
Rogues tabs
Are You In Solo tabs
Anti-gravity tabs
Nice To Know You Live tabs
11am 3 tabs
Medium tabs
Golden tabs
Incubus Science tabs
Smokin The Herb Again tabs
Take Me To Your Leader tabs


Guitar Tabs









All tabs are property and copyright of their owners. All tabs provided for educational purposes only. Privacy Policy, DMCA