Incubus

Clean Bass Tabs



More from Incubus

Incubus Tabs
Incubus Chords
Incubus Bass
Incubus Lyrics



Artist:Incubus
Song:Clean
Transcribed by Nicolo

This is yet another great Incubus song!!!
It’s played on a five string bass, but this song only uses one note on it so if
you don’t have one you can just play an open E or something phat to make a
drone sort of sound. Anyway Enjoy!


G-----------------------------|
D-----------------------------|
A-----------------------------|
E----5-7--7--x-5-7--7---------|
B-----------------------------|

Verse
G-------------------------------------------|
D-------------------------------------------|
A--------------------------------0-----0h2--| Repeated throughout
E--0h2-0h2-0h2----------0h2-0h2----0h2------| verse
B--------------3----------------------------|

Chorus
G---------------------------------------------
D---------------------------------------------
A---------5--------------------------5--------
E-5-7-7-5-----5-5-5-5-3-3-3--5-7-7-5----x-x-x-
B---------------------------------------------

Chorus (cont.)
G------------------|
D------------------|
A---------7--------|
E-5-7-7-7---5-5-5--|
B------------------|

Bridge- comes in after guitar has played it once
G-------------------------------------------------
D-------------------------------------------------
A-3-3-3-x-3-3-3-x-3-----6-3-3-3-x-3-3-3-x-3-----6-
E-------------------6-6---------------------6-6---
B-------------------------------------------------

G-------------------------------------------------|
D-------------------------------------------------|
A--------------------------------(1)(1)(1)--------|
E-4-4-4-x-4-4-4-x-4-3-3-3-1-1-1-x-1-1-1-----------|
B-------------------------------------------------|
The notes in the brackets are played during the second time through

Chorus- (now in different key)
G----------------------------------------
D----------------------------------------
A-1-3-3-1-6--------------1-3-3-1-6-x-x-x-
E------------6-6-6-4-4-4-----------------
B----------------------------------------

Chorus (cont.)
G-----------------|
D-----------------|
A-1-3-3-3---1-1-1-|
E---------1-------|
B-----------------|

Outro
G---------------------------|
D---------------------------|
A-1/3-3-x-1/3-3-x-1/3-3-1-6-|
E---------------------------|
B---------------------------|

There you go, fairly easy song, feel free to make any corrections or suggestions!

Please rate me!

Taken from The BassMasta -- http://www.tabs-database.com



Get this song at amazon.com      Ebay     Ringtones Ringtones  


Learn to play: Songwriting, Piano, Harmonica, Guitar
Also available at Muzikum: Incubus - Clean lyrics

Related Incubus Bass Tabs

The Warmth (4 String) bass
New Skin bass
Megalomaniac bass
Priceless (complete) bass
Certain Shade Of Green bass
Just A Phase bass
Stellar( 4 And 5 String) bass
Consequence bass
Nice To Know You bass
Warning (standard Tuning) bass
Dig bass
Speak Free bass
Redefine bass
Here In My Room bass
Glass bass
Megalomanic bass
Aswethinkweiz bass
Answer bass
Glass-6 String bass
Idiot Box bass


Guitar Tabs









All tabs are property and copyright of their owners. All tabs provided for educational purposes only. Privacy Policy, DMCA