Incubus

Blood On The Ground Chords, Tabs



More from Incubus

Incubus Tabs
Incubus Chords
Incubus Bass
Incubus Lyrics

#-----------------------------PLEASE NOTE-------------------------------------#
#This OLGA file is the author's own work and represents their interpretation  #
#of the song. You may only use this file for private study, scholarship, or   #
#research. Remember to view this file in Courier, or some other monospaced    #
#font. See http://www.olga.net/faq/ for more information.                     #
#-----------------------------------------------------------------------------#



Subject: i/incubus/blood_on_the_ground.tab

Band: Incubus
Song: Blood On The Ground
Album: Morning View
Tabbed By: Steven Carey 10-8-01 (aakornnut999@excite.com)

Dropped D Tuning

Intro:
 phase and maybe flange too
e:-----0-  ---------------------
B:----7--  --7-7-77-7-----------
G:---7---  --7-7-77-7--4-4------
D:--4----  --4-4-44-4--4-4-3-3--
A:-------  ------------2-2-3-3--
D:-------  ----------------3-3--

 








Chorus:
e:--2-2-22-2-----------    -------------------
B:--3-3-33-3-----------    -------------------
G:--2-2-22-2--4-4------    -------------------
D:--0-0-00-0--4-4-3-3-- x3 --5555555-3333333--
A:--0-0-00-0--2-2-3-3--    --5555555-3333333--
D:--0-0-00-0------3-3--    --5555555-3333333--

Verse:
e:----------------------
B:----------------------
G:----------------------
D:----0----7----5----5--
A:---0----7----5----3---
D:--0----7----5----3----

Pre-Chorus:
e:--------------
B:--------------
G:--------------
D:--999-5-3-33--
A:--999-5-3-33--
D:--999-5-3-33--

Bridge:
e:----------------------------0--
B:------------------7))))----7---
G:------0-------0---7))))---7----
D:-----3-----3-3-----------4-----
A:---5------2-5------------------
D:--5-5--------------------------
                           sweep/

 








Get this song at amazon.com      Ebay     Ringtones Ringtones  


Learn to play: Songwriting, Piano, Harmonica, Guitar
Also available at Muzikum: Incubus - Blood on the ground lyrics

Related Incubus Chords

I Miss You chords
Isadore chords
11 Am (Version 3) chords
Pendulous Threads chords
Drive chords
Earth To Bella Part 2 chords
Dig chords
Southern Girl chords
Oil And Water chords
Blood On The Ground chords
If Not Now, When? chords
Nice To Know You chords
Circles chords
A Certain Shade Of Green chords
Pardon Me chords
11 Am chords
Promises, Promises chords
Echo (Version 3) chords
Earth To Bella Part 1 chords
Pantomime chords


Guitar Tabs









All tabs are property and copyright of their owners. All tabs provided for educational purposes only. Privacy Policy, DMCA