Incubus

Battlestar Scralatchtica Bass Tabs



More from Incubus

Incubus Tabs
Incubus Chords
Incubus Bass
Incubus Lyrics




Band: Incubus
Song: Battlestar Scralatchtica
Bassist: Dirk Lance (Alex Katunich)


I tabbed out EVERY variation, I'm 99% sure they are all right. Just listen
to the
song for timing and everything...and enjoy playing this song...it's awesome.

First Riff (starts at 0:10)
G------------------------------------------------
D---5------54-2-12--------5------54-2-12-/10-8~--
A---------5--------3-1~---------5----------------
E-3---1-3---------------3---1-3------------------

G--------------------------------------------------
D---5------43-2-12--------5------43-2-12-----------
A---------5--------3-1~---------5--------3---3-----
E-3---1-3---------------3---1-3------------6---4~--

G------------------------------------------------
D---5------54-2-12--------5------54-2-12-/10-8~--
A---------5--------3-1~---------5----------------
E-3---1-3---------------3---1-3------------------

G-------------------------------------------------------
D---5------54-2-12-------------5------54-2-12-----------
A---------5--------3-1~-320----------5--------3---3-----
E-3---1-3--------------------3---1-3------------6---4~--

G----------------------3---------------------------
D---5------54-2-12----------5------54-2-12-/10-8~--
A---------5--------3-1~-----------5----------------
E-3---1-3-----------------3---1-3------------------

Bridge 1
G------------3-5-6-7--765------------
D--------4-5--------------7-6-5------
A-------------------------------5~---
E-3~---3-----------------------------

Second Riff
G--------------------------------------------------------------------
D--------------------------------------3-4-5-------------------345---
A-----------1-1-1-----------1----3-4-5-----------------1----345------
E-33--1-33--------33--1-1-1---33--------------33-1-1-1---33----------

G--------------------------------------------------------3~--
D-----------------345-------------3-5-----------3-5-0--------
A---------1----345--------------5---------------------1------
E-33-11-3---33--------33-1-1-33-------33-1-1-33--------------

Bridge 2
G--15---------------------------------------------------------
D-----17-------------17-17-17-17-14---------------------------
A--------15-17------------------------15--14--14---------10~--
E--------------12-15------------------------16--16-14-12------

Third Riff
G---------------------------3--------------------------------3---
D-----------------------------5--------------------------------5-
A-------1-1-3-1--5-5--3-5----------------1-1-3-1--5-5-5--5-------
E-3-1-3-------------------6--------3-1-3-------------6-6--6------

G-----------------------7-8-9-10----------------------------3------
D----------------------7-8-9-10-------------------------------5----
A-------1-1-3-1---5-5-------------------1-1-3-1--5-5--3-5----------
E-3-1-3---------------------------3-1-3-------------------6--------

G-----------------------7777----3----------------------------7-8-9-10-----
D----------------------------5----5--2----------------------7-8-9-10------
A-------1-1-3-1---5-5-------------------------1-1-3-1--5-5----------------
E-3-1-3---------------------------------3-1-3-------------------------3~--

Bridge 3
G--7---7-----------------------------------------5-------12--
D----6-----------------------------------------7-------------
A-------7-6-5-4-3-2-1-------3-1-3----------6-7---------------
E----------------------3210-------1-0--7-8-------------------

Fourth Riff var. 1 var. 2 var. 3
G--------------------|-----3---|---------|---------3---|
D--------------------|-------5-|---------|-----------5-|
A--------11-3-1--5-5-|-3-5-----|--765----|-3-5---------|
E-3--1-3-------------|----6----|-----764-|-----6--6----|
var. 4 var. 5
G---------------|------7---8-------|------------|
D---------------|--------------9---|-543-21-----|
A--------11-3-1-|-333-5-5-6-6-7-7--|--------320-|
E-3--1-3--------|------------------|------------|
var. 6 var. 7 var. 8
G--------------------|---------3---|---------3---|---7---7--|
D--------------------|-----------5-|-----------5-|--7-7-7-7-|
A--------11-3-1--5-5-|-3-5---------|-3-5---------|----------|
E-3--1-3-------------|-----6--6----|-----6--6----|----------|

First Riff again
G-----------------------------------------------------
D---5------54-2-12-------------5------54-2-12-/10-8~--
A---------5--------3-1~-320----------5----------------
E-3---1-3--------------------3---1-3------------------

G--------------------------------------------------
D---5------54-2-12--------5------54-2-12-----------
A---------5--------3-1~---------5--------3---3-----
E-3---1-3---------------3---1-3------------6---4~--

Ending(part that fades away)
--------567-9--765------------345--5543---------
-5~-567-----------765-55---345----------53------
------------------------------------------53----
-------------------------3------------------3~--

Have fun playing and Please Rate!!!



Get this song at amazon.com      Ebay     Ringtones Ringtones  


Learn to play: Songwriting, Piano, Harmonica, Guitar
Also available at Muzikum: Incubus - Battlestar Scralatchtica lyrics

Related Incubus Bass Tabs

Shaft bass
Redefine (5 String) bass
Summer Romance bass
Megelomaniac bass
The Warmth (4 String) bass
Aqueous Transmission bass
Just A Phase bass
Priceless (complete) bass
Privilege bass
Sink Beneath The Line bass
Summer Romance (anti-gravity Love Song) bass
Anti-gravity bass
Take Me To Your Leader bass
Talk Shows On Mute bass
Consequence bass
When It Comes bass
Pantomime bass
Made For Tv Movie bass
Under My Umbrella bass
The Warmth bass


Guitar Tabs









All tabs are property and copyright of their owners. All tabs provided for educational purposes only. Privacy Policy, DMCA