Incubus

Azwethinkweiz Bass Tabs



More from Incubus

Incubus Tabs
Incubus Chords
Incubus Bass
Incubus Lyrics




Band:Incubus
Song:Azwethinkweiz


Intro
G -----------------------------------------------
D -----------------------------------------------
A --7-7-5-7--7-7-5-7--7-7-5-7----------5-7-5/9--
E ----------------------------5-6--7-7-----------

Fill
G ----------|
D ----------|
A ----------|
E --x7-x10--|

Chorus
G --------------------------18-16---------------------------------------
D -------------9h11-12---16------------------------9h11-12--------------
A --7-7-5-7-------------------------5---7-7-5-7-------------------9-10-- x2
E --------------------------------7------------------------0h9-7--------

Verse
G ------------------------------------------------------------------------
D ----------------------------------------12-12--12-12--12-12-12-12-------
A ------------------------------------------------------------------------
E --7-5-7-/-10-10~--4h5-55-6--7-5-7-/x10~---------------------------------

G -----------------------------------------------------------------------
D ----------------------------------------12-11-10-----------------------
A -------------------------------------------------12-12-11-10-----------
E --7-5-7-/-10-10~--4h5-55-6--7-5-7-/x10~----------------------12-11-10--

G -------------------------------------------12-12--12-12--12-12--12-12--
D -----------------------------------------------------------------------
A --7-5-7-/-10-10~------------7-5-7-/-10-10~-----------------------------
E ------------------4h5-55-6---------------------------------------------

G -----------------------------------------------------
D -----------------------------------------------------
A --7-5-7-/-10-10~-------------------------------------
E ------------------4h5-55-6--7-5-7-/-10-10~--0h4-5-6--

Bridge 1
G -------------------------------
D -------------------------------
A ---------------------------7~--x3
E --9-9----9-9-----9-9--9-9------

Bridge 2
G ------------------------------------------
D ------------------------------------------
A --5-----5-----5-----5-----5-----5------5--
E -----7-----7-----7-----7-----7-----7------

Fill x1

Chorus x2

Verse x1

Bridge x1

Bridge 2 x1

Chorus x2

Interlude
G ----------------------------------------------------------------
D -----6---------6-----6------6-----------------------------------
A --4-----4-xx-4----4-----4-4----4-----7------7------7-----6------
E -----------------------------------5----5-5----5-5----5-----77--

G ----------------------------6-------------------------------
D -----6-------6----5--6----5---------------------------------
A --4-----4-4-----4-------4------4-----7------7------7--------
E -----------------------------------5----5-5----5-5----5-7--

G ----------------------------6-----------------------------------
D -----6-------6----5--6----5-------------------------------------
A --4-----4-4-----4-------4------4-----7------7------7-----6------
E -----------------------------------5----5-5----5-5----5-----77--

G ----------------------------6---------------------------------------
D -----6-------6----5--6----5-----------------------------------------
A --4-----4-4-----4-------4------4-----7------7------7-----6------7~--
E -----------------------------------5----5-5----5-5----5-----77------

Fill x1

Chorus x4
Intro x1


This tab is 100% correct.
Please rate



Get this song at amazon.com      Ebay     Ringtones Ringtones  


Learn to play: Songwriting, Piano, Harmonica, Guitar
Also available at Muzikum: Incubus - Azwethinkweiz lyrics

Related Incubus Bass Tabs

Made For Tv Movie bass
Wish You Were Here bass
Clean bass
Leech bass
Redefine (4 String) bass
Familiar bass
Talk Show On Mute bass
Megalomanic bass
Talk Shows On Mute bass
Blood On The Ground bass
Version bass
I Miss You bass
Admiration bass
Speak Free bass
Smile Lines bass
Warning (standard Tuning) bass
Azwethinkweiz bass
Echo bass
Deep Inside bass
Nowhere Fast bass


Guitar Tabs









All tabs are property and copyright of their owners. All tabs provided for educational purposes only. Privacy Policy, DMCA