Incubus

Anti-gravity With Sax Solo Tabs



More from Incubus

Incubus Tabs
Incubus Chords
Incubus Bass
Incubus Lyrics

Summer Romance (Anti-Gravity Love-Song)



Tabbed by Otis Beasley (email: otisbeasley@hotmail.com)


Sax solo is included, transcribed for guitar.
I've also done the bass tabs for this song.


h = hammer-on
p = pull-off
/ or = slide (only first note is attacked)
x = muffled strings
b = bend up; r = release bend; (x) = pitch of bend note
~ = vibrato



INTRO:

low E string:

E|x--x--x----x--x-|



RIFF A:
E|7-h10---x---7---|x---x---5-h-7---|x---x---2---x---|2-h-5---x---x---|


                                                            END RIFF A
E|7-h10---x---7---|x---x---5-h-7---|x---x---3---x---|3-h-5---x---x---|



PLAY RIFF A THREE TIMES, THEN PLAY:



E|7-h10---x---7---|x---x---5-h-7---|x---x---2---x---|2-h-5---x---x---|


E|7-h10---x---x---|5-h-7---x---x---|3-h-5---x---x---|0-h-2---x---x---|



PLAY RIFF A AGAIN, THEN PLAY THIS (RIFF B):


RIFF B
E|7-h10---x---7---|x---x---5-h-7---|x---x---2---x---|2-h-5---x---x---|


                                                            END RIFF B
E|7-h10---x---7---|x---x---5-/-7---|7---7---7---7---|7---7---7---7---|



PLAY RIFF A AGAIN, THEN PLAY RIFF B, THEN PLAY:


E|7-h-10-p7-------|----------------|----------------|----------------|
B|-------------9--|----------------|----------------|----------------|
G|----------------|7-h-9-----------|7-------9-------|7-/-9-----------|
D|----------------|--------7--6---|----6-------6---|----------------|
A|----------------|----------------|----------------|----------------|
E|----------------|----------------|----------------|----------------|


E|----------------|----------------|----------------|----------------|
B|----------------|----------------|----------------|----------------|
G|7---7-----------|----------------|----------------|----------------|
D|----------------|----------------|----------------|----------------|
A|----------------|----------------|----------------|----------------|
E|----------------|----------------|----------------|----------------|


VERSE:  "I'm home alone tonight..."

Play these four lines four times, improvising in measures 9-16

E|7---------------|----------------|----------------|----------------|
B|7---------------|----------------|----------------|----------------|
G|7---------------|----------------|----------------|----------------|
D|7---------------|----------------|----------------|----------------|
A|9---------------|----------------|----------------|----------------|
E|7---------------|----------------|----------------|----------------|


E|----------------|10------12------|13/14---12------|10-/12------10--|
B|----------------|-x-------x------|x--------x------|-x-----------x--|
G|----------------|-7-------9------|10/11----9------|-7-/-9-------7--|
D|----------------|----------------|----------------|----------------|
A|----------------|----------------|----------------|----------------|
E|----------------|----------------|----------------|----------------|


E|----------------|----------------|----------------|----------------|
B|----12----------|----------------|----------------|----------------|
G|----x-----------|----------------|----------------|----------------|
D|----9-----------|----------------|----------------|----------------|
A|----------------|----------------|----------------|----------------|
E|----------------|----------------|----------------|----------------|


E|----------------|----------------|----------------|----------------|
B|----------------|----------------|----------------|----------------|
G|----------------|----------------|----------------|----------------|
D|----------------|----------------|----------------|----------------|
A|----------------|----------------|----------------|----------------|
E|----------------|----------------|----------------|----------------|



PRE-CHORUS:  "When we get there..."

    Emin7  |  Dmaj7  |  Gdim7  |  Bmin7  |   Bmin  
E|----9----|----5----|----6----|----7----|----10---|
B|----8----|----7----|----8----|----7----|----12---|
G|----7----|----6----|----9----|----7----|----11---|
D|----9----|----7----|----8----|----7----|----9----|
A|----7----|----5----|---------|----9----|---------|
E|---------|---------|---------|----7----|---------|


Emin7
|E-----------E---|x---x---E-------|E---E---E---E---|E---E---x---x---|


Dmaj7
|D------(D)--D---|x---x---D-------|D---D---D---D---|D---D---x---x---|


Gdim7
|G-----------G---|x---x---G-------|----G---G---G---|G---G---x---x---|


Bmin7                             Bmin
|B-----------B---|B---B---x---x---|B-------B---B---|B---B---B---x---|


Emin7
|E-----------E---|x---x---E-------|E---E---E---E---|E---E---x---x---|


Dmaj7
|D------(D)--D---|x---x---D-------|----D---D---D---|D---D---x---x---|


Gdim7
|G-----------G---|x---x---G-------|----G---G---G---|G---G---x---x---|


Bmin7
|B-------B-------|B-------B-------|B-------B-------|B-------B---B---|




CHORUS:  "Antigravity..."

play RIFF A, then RIFF B, then RIFF A, then RIFF B



PRE-VERSE:


E|----------------|----------------|----------------|----------------|
B|----------------|----------------|----------------|----------------|
G|7-----------7---|x-------7-------|----7---7---7---|7---7---x---x---|
D|x-----------x---|x-------x-------|----x---x---x---|x---x---x---x---|
A|5-----------5---|x-------5-------|----5---5---5---|5---5---x---x---|
E|----------------|----------------|----------------|----------------|


E|----------------|----------------|----------------|----------------|
B|----------------|----------------|----------------|----------------|
G|----------------|----------------|----------------|----------------|
D|4-----------2---|--------4-------|12--------------|9---------------|
A|4-----------2---|--------4-------|12--------------|8---------------|
E|2-----------0---|--------2-------|10--------------|9---------------|


E|----------------|----------------|----------------|----------------|
B|----------------|----------------|----------------|----------------|
G|----------------|----------------|----------------|----------------|
D|7---7-------7---|----7---7-------|7---------------|----------------|
A|9---9-------9---|----9---9-------|9---------------|----------------|
E|7---7-------7---|----7---7-------|7---------------|----------------|



VERSE:  "For years, I kept to myself..."

- As before



PRE-CHORUS:  "When we get there..."

- As before



CHORUS:  "Antigravity..."

- As before



INTERLUDE:

E|----------------|----------------|----------------|----------------|
B|----------------|----------------|----------------|----------------|
G|7-----------7---|x-------7-------|----7---7---7---|7---7---x---x---|
D|7-----------7---|x-------7-------|----7---7---7---|7---7---x---x---|
A|5-----------5---|x-------5-------|----5---5---5---|5---5---x---x---|
E|----------------|----------------|----------------|----------------|


E|----------------|----------------|----------------|----------------|
B|----------------|----------------|----------------|----------------|
G|----------------|----------------|----------------|----------------|
D|4-----------2---|--------4-------|12--------------|9---------------|
A|4-----------2---|--------4-------|12--------------|8---------------|
E|2-----------0---|--------2-------|10--------------|9---------------|


  Play this line four times (forth time: sax enters)
E|----------------|----------------|----------------|----------------|
B|----------------|----------------|----------------|----------------|
G|----------------|----------------|----------------|----------------|
D|7---7-------7---|----7---7-------|7---------------|----------------|
A|9---9-------9---|----9---9-------|9---------------|----------------|
E|7---7-------7---|----7---7-------|7---------------|----------------|


E|----------------|----------------|----------------|----------------|
B|----------------|----------------|----------------|----------------|
G|----------------|----------------|----------------|----------------|
D|----------------|----------------|----------------|----------------|
A|----------------|----------------|----------------|----------------|
E|----------------|----------------|----------------|----------------|



SAX SOLO TABBED FOR GUITAR:


Add any extra hammer-ons/pull-offs/vibrato wherever you want

E|--------------------------------|----------------5-p-0-------10-p|
B|------------------------3-------|3-/-5---3-h-5-----------10------|
G|4-----------2-------2-------2---|--------------------------------|
D|----0-h-2-------2---------------|--------------------------------|
A|--------------------------------|--------------------------------|
E|--------------------------------|--------------------------------|


E|9-------------------------------|9-h-10-p9-----------------------|
B|------------------------10-h12--|------------------------12/-/-/-|
G|--------------------------------|---------------------------^----|
D|--------------------------------|------------------------ steady |
A|--------------------------------|------------------------ slide  |
E|--------------------------------|--------------------------------|


E|--------------------------------|----7---------------------------|
B|9-----------------------7---9---|10------9-----------8-----------|
G|--------------------------------|------------------------9-h-10--|
D|--------------------------------|--------------------------------|
A|--------------------------------|--------------------------------|
E|--------------------------------|--------------------------------|


E|--------------------------------|--------------------------------|
B|7---------------5---------------|8---9p7-------------7-----------|
G|----7---------------6-----------|--^-----9---8---7-------6-----4-|
D|--------9---------------7-------|--^-----------------------------|
A|----------------------------- is actually -----------------------|
E|---------------------- 8/109 (only 8 is attacked) --------------|


E|--------------------------------|--------------------------------|
B|5-------------------------------|----------------------------10--|
G|--------------------------------|----------------9---7-----------|
D|--------------------------------|--------------------------------|
A|--------------------------------|--------------------------------|
E|--------------------------------|--------------------------------|


E|--------------------------------|--------------------------------|
B|--------------------------------|--------------------------------|
G|9-------------------~~~~7-------|9-------9---7-------------------|
D|--------------------------------|--------------------------------|
A|--------------------------------|--------------------------------|
E|--------------------------------|--------------------------------|


E|--------------------------------|--------------------------------|
B|----------------10--------------|--------------------------------|
G|--------9-----------9-------9h10p9---7-----------9---7-----------|
D|--------------------------------|----^---9-----------------------|
A|--------------------------------|----^---------------------------|
E|---------------- is actually 9/7: (9 is a grace note ------------|
                                        before the beat)

E|--------------------------------|--------------------------------|
B|--------------------------------|--------------------------------|
G|--------------------------------|--------------------------------|
D|--------------7/9---7-------9---|--------9-------7---7---9-------|
A|--------------^-----------------|10/-11--------------------------|
E|--------  grace note  ----------|--------------------------------|
        (before the beat)

E|--------------------------------|--------------------------------|
B|--------------------------------|--------------------------------|
G|--------------------------------|--------------------6---7---8---|
D|6---6---9-------6-/-7---9-------|--------6---7---9---------------|
A|----------------------------9---|----9---------------------------|
E|--------------------------------|--------------------------------|


(Quasi PRE-CHORUS begins here)

   < - < - < - < - < - < - F R E E T I M E - > - > - > - > - > - >
E|--------------------------------|----------------2-------2-------|
B|--------------------------------|------------3-------------3-----|
G|------------------------4-------|--------4-------------------4---|
D|9---8---7---6---------------7---|6---5-------------------------5-|
A|----------------------------^---|^---^-------------------^-^-^-^-|
E|--------------------- easiest way is to fret ---------- use sweep
                     these three notes with your           picking
                  little finger and slide it along


E|0---------------5---0-----------|---------------------------7h9--|
B|----3-------------------3-p2----|-----------------------7/8------|
G|----------------------------2---|-------------------6------------|
D|--------------------------------|--------------------------------|
A|--------------------------------|--------------------------------|
E|--------------------------------|--------------------------------|


E|--------------------------------|--------------------------------|
B|10--------------10---7------7/6-|--------------------------------|
G|------------------------7-------|----7-------7-p-6---------------|
D|--------------------------------|--------8-----------8-----------|
A|--------------------------------|------------------------9-------|
E|--------------------------------|--------------------------------|


E|--------------------------------|--------------------------------|
B|--------------------------------|--------------------------------|
G|--------------------------------|------------9---6---------------|
D|7----9--------------------------|7---9-------------------7-------|
A|--------------------------------|----------------------------9---|
E|--------------------------------|--------------------------------|


E|--------------------------------|--------------------------------|
B|--------------------------------|------------------------7-------|
G|--------------------------------|----------------7-h-9-----------|
D|--------------------------------|--------7-h-9-------------------|
A|--------------------------------|----9---------------------------|
E|--------------------------------|--------------------------------|


E|5-h-7-------7-p-5-----------5---|--------------------------------|
B|--------7-----------7-p-5-------|7---h---5-----------------------|
G|--------------------------------|------------7---7---------------|
D|--------------------------------|--------------------------------|
A|--------------------------------|--------------------------------|
E|--------------------------------|--------------------------------|

  < - < - F R E E T I M E - > - >
E|--------------------------6h9---|----------------9-p-7-----------|
B|-------------------------7------|----------------------7-------0-|
G|--------------------3-6/7-------|------------------------7/6-----|
D|----------------4---------------|--------------------------------|
A|--------4-h-5-------------------|--------------------------------|
E|--------------------------------|--------------------------------|


E|--------------------------------|--------------------------------|
B|5--------b6r5---3---------------|--------------------------------|
G|----------------------6-------7---7/9-------6--------------------|
D|----------------------------------^------------------------------|
A|--------------------------- steady slide ------------------------|
E|-----------------------------------------------------------------|



CHORUS:  "Antigravity"

- As before


OUTRO:

E|----------------|----------------|----------------|----------------|
B|----------------|----------------|----------------|----------------|
G|7-----------7---|x-------7-------|----7---7---7---|7---7---x---x---|
D|7-----------7---|x-------7-------|----7---7---7---|7---7---x---x---|
A|5-----------5---|x-------5-------|----5---5---5---|5---5---x---x---|
E|----------------|----------------|----------------|----------------|


E|----------------|----------------|----------------|----------------|
B|----------------|----------------|----------------|----------------|
G|----------------|----------------|----------------|----------------|
D|4-----------2---|--------4-------|12--------------|9---------------|
A|4-----------2---|--------4-------|12--------------|8---------------|
E|2-----------0---|--------2-------|10--------------|9---------------|

ad lib...

E|----------------|--------9-------|----------------|----------------|
B|----------------|--------7-------|----------------|----------------|
G|----------------|--------7-------|----------------|----------------|
D|----------------|--------7-------|----------------|----------------|
A|----------------|--------9-------|----------------|----------------|
E|----------------|--------7-------|----------------|----------------|
Get this song at amazon.com      Ebay     Ringtones Ringtones  


Learn to play: Songwriting, Piano, Harmonica, Guitar
Also available at Muzikum: Incubus - Anti-gravity With Sax Solo lyrics

Related Incubus Tabs

Favourite Things tabs
You Will Be A Hot Dancer tabs
Wish You Were Here Live tabs
11am2 tabs
Make A Move tabs
Drive (Version 4) tabs
Certain Shade Of Green Solo tabs
Aqueous Transmission2 tabs
Nowhere Fast Bridge tabs
Idiot Box tabs
Love Hurts tabs
Talk Shows On Mute tabs
Stellar Intro tabs
Everything Is Dead tabs
Stellar Corrected tabs
Clean tabs
Aqueous Transmission3 tabs
Wish You Were Here tabs
Drive7 tabs
I Miss You tabs


Guitar Tabs









All tabs are property and copyright of their owners. All tabs provided for educational purposes only. Privacy Policy, DMCA

Online converter - videoconverter.com