Incubus

Anti-gravity Sax Solo Tabbed For Guitar Tabs



More from Incubus

Incubus Tabs
Incubus Chords
Incubus Bass
Incubus Lyrics

Incubus: Summer Romance (Anti-Gravity Love-Song)



Tabbed by Otis Beasley (email: otisbeasley@hotmail.com)


Sax solo tabbed for guitar - I've also done the whole version of the song

h = hammer on
p = pull off
/ = legato slide (second note isn't attacked)
b = bend up; r = release bend; (x) = pitch of bend note
~ = vibrato

Add any extra hammer-ons/pull-offs/vibrato wherever you want

E|--------------------------------|----------------5-p-0-------10-p|
B|------------------------3-------|3-/-5---3-h-5-----------10------|
G|4-----------2-------2-------2---|--------------------------------|
D|----0-h-2-------2---------------|--------------------------------|
A|--------------------------------|--------------------------------|
E|--------------------------------|--------------------------------|


E|9-------------------------------|9-h-10-p9-----------------------|
B|------------------------10-h12--|------------------------12/-/-/-|
G|--------------------------------|---------------------------^----|
D|--------------------------------|------------------------ steady |
A|--------------------------------|------------------------ slide  |
E|--------------------------------|--------------------------------|


E|--------------------------------|----7---------------------------|
B|9-----------------------7---9---|10------9-----------8-----------|
G|--------------------------------|------------------------9-h-10--|
D|--------------------------------|--------------------------------|
A|--------------------------------|--------------------------------|
E|--------------------------------|--------------------------------|


E|--------------------------------|--------------------------------|
B|7---------------5---------------|8---9p7-------------7-----------|
G|----7---------------6-----------|--^-----9---8---7-------6-----4-|
D|--------9---------------7-------|--^-----------------------------|
A|----------------------------- is actually -----------------------|
E|---------------------- 8/109 (only 8 is attacked) --------------|


E|--------------------------------|--------------------------------|
B|5-------------------------------|----------------------------10--|
G|--------------------------------|----------------9---7-----------|
D|--------------------------------|--------------------------------|
A|--------------------------------|--------------------------------|
E|--------------------------------|--------------------------------|


E|--------------------------------|--------------------------------|
B|--------------------------------|--------------------------------|
G|9-------------------~~~~7-------|9-------9---7-------------------|
D|--------------------------------|--------------------------------|
A|--------------------------------|--------------------------------|
E|--------------------------------|--------------------------------|


E|--------------------------------|--------------------------------|
B|----------------10--------------|--------------------------------|
G|--------9-----------9-------9h10p9---7-----------9---7-----------|
D|--------------------------------|----^---9-----------------------|
A|--------------------------------|----^---------------------------|
E|---------------- is actually 9/7: (9 is a grace note ------------|
                                        before the beat)

E|--------------------------------|--------------------------------|
B|--------------------------------|--------------------------------|
G|--------------------------------|--------------------------------|
D|--------------7/9---7-------9---|--------9-------7---7---9-------|
A|--------------^-----------------|10/-11--------------------------|
E|--------  grace note  ----------|--------------------------------|
        (before the beat)

E|--------------------------------|--------------------------------|
B|--------------------------------|--------------------------------|
G|--------------------------------|--------------------6---7---8---|
D|6---6---9-------6-/-7---9-------|--------6---7---9---------------|
A|----------------------------9---|----9---------------------------|
E|--------------------------------|--------------------------------|


(quasi PRE-CHORUS begins here)

   < - < - < - < - < - < - F R E E T I M E - > - > - > - > - > - >
E|--------------------------------|----------------2-------2-------|
B|--------------------------------|------------3-------------3-----|
G|------------------------4-------|--------4-------------------4---|
D|9---8---7---6---------------7---|6---5-------------------------5-|
A|----------------------------^---|^---^-------------------^-^-^-^-|
E|--------------------- easiest way is to fret ---------- use sweep
                     these three notes with your           picking
                  little finger and slide it along


E|0---------------5---0-----------|---------------------------7h9--|
B|----3-------------------3-p2----|-----------------------7/8------|
G|----------------------------2---|-------------------6------------|
D|--------------------------------|--------------------------------|
A|--------------------------------|--------------------------------|
E|--------------------------------|--------------------------------|


E|--------------------------------|--------------------------------|
B|10--------------10---7------7/6-|--------------------------------|
G|------------------------7-------|----7-------7-p-6---------------|
D|--------------------------------|--------8-----------8-----------|
A|--------------------------------|------------------------9-------|
E|--------------------------------|--------------------------------|


E|--------------------------------|--------------------------------|
B|--------------------------------|--------------------------------|
G|--------------------------------|------------9---6---------------|
D|7----9--------------------------|7---9-------------------7-------|
A|--------------------------------|----------------------------9---|
E|--------------------------------|--------------------------------|


E|--------------------------------|--------------------------------|
B|--------------------------------|------------------------7-------|
G|--------------------------------|----------------7-h-9-----------|
D|--------------------------------|--------7-h-9-------------------|
A|--------------------------------|----9---------------------------|
E|--------------------------------|--------------------------------|


E|5-h-7-------7-p-5-----------5---|--------------------------------|
B|--------7-----------7-p-5-------|7---h---5-----------------------|
G|--------------------------------|------------7---7---------------|
D|--------------------------------|--------------------------------|
A|--------------------------------|--------------------------------|
E|--------------------------------|--------------------------------|

  < - < - F R E E T I M E - > - >
E|--------------------------6h9---|----------------9-p-7-----------|
B|-------------------------7------|----------------------7-------0-|
G|--------------------3-6/7-------|------------------------7/6-----|
D|----------------4---------------|--------------------------------|
A|--------4-h-5-------------------|--------------------------------|
E|--------------------------------|--------------------------------|


E|--------------------------------|--------------------------------|
B|5--------b6r5---3---------------|--------------------------------|
G|----------------------6-------7---7/9-------6--------------------|
D|----------------------------------^------------------------------|
A|--------------------------- steady slide ------------------------|
E|-----------------------------------------------------------------|
Get this song at amazon.com      Ebay     Ringtones Ringtones  


Learn to play: Songwriting, Piano, Harmonica, Guitar
Also available at Muzikum: Incubus - Anti-gravity Sax Solo Tabbed For Guitar lyrics

Related Incubus Tabs

When Incubus Attacks tabs
Deep Inside tabs
Glass tabs
You Are Stellar tabs
When It Comes tabs
Nebula tabs
Summer Romance tabs
Smokin Da Herb tabs
ARE YOU IN? tabs
Drive5 tabs
Pardon Me2 tabs
A Certain Shade Of Green tabs
Quicksand tabs
Leech tabs
Smoking The Herb Again tabs
Yourself tabs
Agoraphobia tabs
Circles tabs
Idiotbox tabs
The Answer tabs


Guitar Tabs









All tabs are property and copyright of their owners. All tabs provided for educational purposes only. Privacy Policy, DMCA

Online converter - videoconverter.com