Incubus

Anna Molly Tabs



More from Incubus

Incubus Tabs
Incubus Chords
Incubus Bass
Incubus Lyrics



ANNA-MOLLY

As recorded by Incubus

(From the 2006 Album LIGHT GRENADES)



Transcribed by Whoabot





Words and Music by Incubus

Arranged by Incubus



Gtr I (E A D G B E) - 'Lead'

Gtr II (E A D G B E) - 'Lead'

Gtr III (E A D G B E) - 'Overdubbed Mutey Clean'

Gtr IV (E A D G B E) - 'Mbira'

Gtr V (E A D G B E) - 'Feedback'



Intro

Q=153

Cm Eb

4/4

Gtrs I, II

PM

Q E S S S S S S S S E +E E E S S S S S S S S S S

|-----------------------------------|---------------------------------|

|--8---8-----8-----8--8--8--8--8--8-|-----------------8-8-8-8-8-8-----|

|--8---8--8--8--8--8--8--8--8--8--8-|--(8)------------8-8-8-8-8-8-----|

|-10--10-10-10-10-10-10-10-10-10-10-|-(10)-10-10------8-8-8-8-8-8-----|

|-10--10-10-10-10-10-10-10-10-10-10-|-(10)-10-10-10---6-6-6-6-6-6-0-6-|

|--8---8--8--8--8--8--8--8--8--8--8-|--(8)--8--8--8-8-----------------|





Ab Eb5 F5

Q E S S S S S S S S E +E S S E E a E E E S S

|------------------------|---------------------------------|

|----4-----4-----------4-|-(4)-----------------------------|

|----5-5-5-5-5-5-5-5-5-5-|-(5)-5-5---8-(8)s10-10-10\-------|

|-6--6-6-6-6-6-6-6-6-6-6-|-(6)-6-6-6-8-(8)s10-10-10\-10-10-|

|-x--6-6-6-6-6-6-6-6-6-6-|-(6)-6-6-6-6-(6)s=8--8--8\-10-10-|

|-4--4-4-4-4-4-4-4-4-4-4-|-(4)-4-4-4-----------------------|





Cm Eb

Q E S S S S S S S S E +E E E S S E. S S S S S

|-----------------------------------|------------------------------|

|--8---8-----8-----8--8--8--8--8--8-|-----------------8--8-8-8-----|

|--8---8--8--8--8--8--8--8--8--8--8-|--(8)------------8--8-8-8-----|

|-10--10-10-10-10-10-10-10-10-10-10-|-(10)-10-10------8--8-8-8-8-8-|

|-10--10-10-10-10-10-10-10-10-10-10-|-(10)-10-10-10---6--6-6-6-6-6-|

|--8---8--8--8--8--8--8--8--8--8--8-|--(8)--8--8--8-8--------------|





Ab Fm G7

Q E. S S S S S S S E +Q E S S S S S S S S S S

|---------------------1-|-(1)--1------------------------|

|----4--4-------------1-|-(1)--1-----3-3-3-3-3-3--------|

|-5--5--5-5-5-5-5-----1-|-(1)--1-----4-4-4-4-4-4--------|

|-6--6--6-6-6-6-6-6-6-3-|-(3)--3-----3-3-3-3-3-3--------|

|-6--6--6-6-6-6-6-6-6-3-|-(3)--3-3-3-5-5-5-5-5-5-5-5----|

|-4--4--4-4-4-4-4-4-4-1-|-(1)--1-1-1-3-3-3-3-3-3-3-3----|





Cm Eb

Q S S S S S S S S S S E +E E E S S S S S S S S S S

|--------------------------------------|------------------------------------|

|--8------8-----8-----8--8--8--8--8--8-|------------------8-8-8-8--8--8-----|

|--8---8--8--8--8--8--8--8--8--8--8--8-|--(8)--8--8-------8-8-8-8--8--8-----|

|-10--10-10-10-10-10-10-10-10-10-10-10-|-(10)-10-10-10----8-8-8-8--8--8-8---|

|-10--10-10-10-10-10-10-10-10-10-10-10-|-(10)-10-10-10-10-6-6-6-6--6--6-6-6-|

|--8---8--8--8--8--8--8--8--8--8--8--8-|--(8)--8--8--8--8-------------------|

|

| Gtr IV

| > >

| TP TP TP TP

| W +H Q +Q

|--------------------------------------|------------------6-------(6)-------|

|--8-----------------------------------|--(8)-------------------------------|

|--------------------------------------|------------------------------------|

|--------------------------------------|------------------------------------|

|--------------------------------------|------------------------------------|

|--------------------------------------|------------------------------------|





Ab EbF5 C5

Q E S S S S S S S S E +E E E E E E E E

|------------------------|-------------------------|

|----4-----4-----------4-|-(4)---------------------|

|----5-5-5-5-5-5-5-5-5-5-|-(5)-----8-/10-10-10-----|

|----6-6-6-6-6-6-6-6-6-6-|-(6)-6-6-8-/10-10-10-----|

|-6--6-6-6-6-6-6-6-6-6-6-|-(6)-6-6-6--/8--8--8--10-|

|-4--4-4-4-4-4-4-4-4-4-4-|-(4)-4-4---------------8-|

|

| > >

| TP TP TP TP

| W +H Q +Q

|------------------------|-------------6----(6)----|

|-8----------------------|-(8)---------------------|

|------------------------|-------------------------|

|------------------------|-------------------------|

|------------------------|-------------------------|

|------------------------|-------------------------|





Cm Eb

Q E S S S S S S S S E +E E E S S E S S S S S S

|-----------------------------------|---------------------------------|

|--8---8-----8-----8--8--8--8--8--8-|-----------------8-8-8--8--8-----|

|--8---8--8--8--8--8--8--8--8--8--8-|--(8)------------8-8-8--8--8-----|

|-10--10-10-10-10-10-10-10-10-10-10-|-(10)-10-10------8-8-8--8--8-8-8-|

|-10--10-10-10-10-10-10-10-10-10-10-|-(10)-10-10-10---6-6-6--6--6-6-6-|

|--8---8--8--8--8--8--8--8--8--8--8-|--(8)--8--8--8-8-----------------|

|

| > >

| TP TP TP TP

| W +H Q +Q

|-----------------------------------|-----------------6-----(6)-------|

|--8--------------------------------|--(8)----------------------------|

|-----------------------------------|---------------------------------|

|-----------------------------------|---------------------------------|

|-----------------------------------|---------------------------------|

|-----------------------------------|---------------------------------|





Ab Fm G7

Q E. S S S S S S S E +Q E E E S S S S S S

|---------------------1-|-(1)--1---3-3-3-3-3-----||

|----4--4-------------1-|-(1)--1---3-3-3-3-3-----||

|----5--5-5-5-5-5-----1-|-(1)--1---4-4-4-4-4-----||

|-6--6--6-6-6-6-6-6-6-3-|-(3)--3-3-3-3-3-3-3-----||

|-6--6--6-6-6-6-6-6-6-3-|-(3)--3-3-5-5-5-5-5-5-5-||

|-4--4--4-4-4-4-4-4-4-1-|-(1)--1-1-3-3-3-3-3-3-3-||

|

| >

| TP TP

| W +W

|-----------------------|------------------------||

|-8---------------------|-(8)--------------------||

|-----------------------|------------------------||

|-----------------------|------------------------||

|-----------------------|------------------------||

|-----------------------|------------------------||





Pre-Verse

Cm Bb Gm Eb Cm Eb5

E E E E Q Q E E E E Q Q E E E S S E E E S S

||----------------------|---------------------|--------------------------------|

||o---------------------|---------------------|--------------------------------|

||---8--8--8--8--8\--7--|---------------------|--8--8--8---------8-8-8---------|

||--10-10-10-10-10\--8--|--8--8--8--8--8\--5--|-10-10-10-(0)-(0)-8-8-8-(0)-(0)-|

||o---------------------|-10-10-10-10-10\--6--|----------(0)-(0)-------(0)-(0)-|

||----------------------|---------------------|--------------------------------|





1. 2.

Gm Eb Gm Eb

E E E E E E Q E E E E S S S S S S S S

|--------------------------||-----------------------------------------------||

|-------------------------o||-----------------------------------------------||

|--------------------------||-----------------------------------------------||

|--8--8--8-(0)-------------||--8--8--8--8-(8)-(8)-(8)-(8)-(8)-(8)-(8)-(8)---||

|-10-10-10-(0)-10-10-10\--o||-10-10-10-10-10--10--10--10--10--10--10--10----||

|--------------11-11-11\---||-------------11--11--11--11--11--11--11--11----||





Verse

(Cm7)

Gtr I

PM--| PM PM------| PM-

E E E Q q E E E Q E E E E

||--------------------|-10-----------------|

||o---------11--------|---------------11---|

||-----8--------8-----|-------8------------|

||--10---10--------10-|----10----10-8----8-|

||o-------------------|--------------------|

||--------------------|--------------------|





Added by tabs-database.com and our distinguished partners
Get this song at amazon.com      Ebay     Ringtones Ringtones  


Learn to play: Songwriting, Piano, Harmonica, Guitar
Also available at Muzikum: Incubus - Anna Molly lyrics

Related Incubus Tabs

Make A Move tabs
Just A Phase tabs
Talk Show On Mute Solo tabs
Like A Virgin tabs
Made For Tv Movie tabs
Here In My Room tabs
A Certain Shade Of Green tabs
Quicksand tabs
Out From Under tabs
Dig tabs
The Original tabs
Trouble In 421 tabs
Like A Virgin Cover tabs
Southern Girl Solo tabs
Certain Shade Of Green Solo tabs
Stellar Acoustic tabs
Under My Umbrella Bass tabs
Pendulous Threads tabs
The Warmth tabs
Aqueous Transmission5 tabs


Guitar Tabs









All tabs are property and copyright of their owners. All tabs provided for educational purposes only. Privacy Policy, DMCA