Incubus

Agoraphobia Bass Tabs



More from Incubus

Incubus Tabs
Incubus Chords
Incubus Bass
Incubus Lyrics




Intro
G|-------------------------------|
D|----3------3--4----3------3--4-|
A|-5------5-------5------5-------|
E|-------------------------------|

Verse 1
G|------------------------------------------------|
D|------3--------------------3--------------------|
A|-3-5------3-5---------3-5------3-5-----8---10-8-| X4
E|--------------0-3-1----------------0-3/--0------|

Pre-chorus 1
G|-------------------------------------------------------|
D|-------1----3-3-3-1-----1-3-3-3-1-----1-3-3-3-1--------|
A|-3-3-3----------------3-------------3------------1-1-1-|
E|-------------------------------------------------------|

G|--------------------------------------------------------|
D|-------1----3-3-3-1-----1-3-3-3-1-----1-3-3-3-3-3-3-3-3-|
A|-3-3-3----------------3-------------3-------------------|
E|--------------------------------------------------------|

Chorus 1
G|-----3-------------------------3-----3-------------------------3-|
D|-5-5---1-1-1-3---------1-1-0-1---5-5---1-1-1-3---------0-0---0---|
A|---------------1-1-1-3-------------------------1-1-1-3-----3-----|
E|-----------------------------------------------------------------|

G|-----3-------------------------3-----3-------------------|
D|-3-5---1-1-1-3---------1-1-0-1---5-5---1-1-1-3-------1---|
A|---------------1-1-1-3-------------------------1-1-3-----|
E|---------------------------------------------------------|

Verse 2
G|----------------------------------------------|
D|----3--------------------3--------------------|
A|-5------3-5---------3-5------3-5-----8---10-8-|
E|------------0-3-1----------------0-3/--0------|

G|------------------------------------------------|
D|------3--------------------3--------------------|
A|-3-5------3-5---------3-5------3-5-----8---10-8-| X3
E|--------------0-3-1----------------0-3/--0------|

Pre-chorus 2
G|-------------------------------------------------------|
D|-------1----3-3-3-1-----1-3-3-3-1-----1-3-3-3-1--------|
A|-3-3-3----------------3-------------3------------1-1-1-|
E|-------------------------------------------------------|

G|----------------------------------------------------------|
D|-------1--3h5-3-3-3-1-----1-3-3-3-1-----1-3-3-3-3-3-3-3-3-|
A|-3-3-3------------------3-------------3-------------------|
E|----------------------------------------------------------|

Chorus 2
G|-----3-------------------------3-----3-------------------------3-|
D|-5-5---1-1-1-3---------1-1-0-1---5-5---1-1-1-3---------0-0---0---|
A|---------------1-1-1-3-------------------------1-1-1-3-----3-----|
E|-----------------------------------------------------------------|

G|-----3-------------------------3-----3---------------------|
D|-3-5---1-1-1-3---------1-1-0-1---5-5---1-1-1-3-------------|
A|---------------1-1-1-3-------------------------1-1-3-5--5--|
E|-----------------------------------------------------------|

Interlude
G|------------------------------------------------------|
D|-15--13--12----------------------------1--0-1--0-1--/-|
A|--------------6--6--6-6-6-3--1-3--1-3-----------------|
E|------------4-----------------------------------------|

G|------------------------------------------------------|
D|-15--13--12-----------------------------------------1-|
A|--------------6--6--6-6-6-3--1-3--1-3-------1-2-3-4---|
E|------------4-------------------------1-3-4-----------|

G|---------------------------------------------------------|
D|-15--13--12-------------8-8-6-6-5-5----------------------|
A|--------------6--6--6-6-------------8-8-6-6---6----------|
E|------------4-------------------------------8---6--3-3-6-|

G|-----------------------------------------------------------|
D|-15--13--12------------------------------------------------|
A|--------------6--6--6-6-6-3--1-3--1-3----------13-14-15-16-|
E|------------4-------------------------13-15-16-------------|

G|------------------------17-18--19-20-20-------------------------|
D|----------15-16-17-18-------------------------------------------|
A|-15-17-18----------------------------------6---/10---8----------|
E|---------------------------------------------------------6---8--|

Chorus 3/Outro
G|-----3-------------------------3-----3-------------------------3-|
D|-5-5---1-1-1-3---------1-1-0-1---5-5---1-1-1-3---------0-0---0---|
A|---------------1-1-1-3-------------------------1-1-1-3-----3-----| X2
E|-----------------------------------------------------------------|

G|-----3-------------------------3-----3---------------------|
D|-3-5---1-1-1-3---------1-1-0-1---5-5---1-1-1-3-------1--1--|
A|---------------1-1-1-3-------------------------1-1-3-------|
E|-----------------------------------------------------------|



Get this song at amazon.com      Ebay     Ringtones Ringtones  


Learn to play: Songwriting, Piano, Harmonica, Guitar
Also available at Muzikum: Incubus - Agoraphobia lyrics

Related Incubus Bass Tabs

Azwethinkweiz bass
Aqueous Transmission (Version 3) bass
Megelomaniac bass
Summer Romance (anti-gravity) bass
Privelege bass
Answer bass
Here In My Room bass
11 Am Tab bass
Calgone (secret Songs / Secret Part) bass
Agoraphobia bass
Glass-6 String bass
Vitamin bass
Sink Beneath The Line bass
Zee Deveel bass
The Warmth bass
Mexico bass
When Incubus Attacks bass
Make Yourself bass
Anna Molly bass
Stellar bass


Guitar Tabs









All tabs are property and copyright of their owners. All tabs provided for educational purposes only. Privacy Policy, DMCA