Incubus

Adolescents Tabs



More from Incubus

Incubus Tabs
Incubus Chords
Incubus Bass
Incubus Lyrics

Tuning: standard
Beat: 6/8; 6/4


Vers: light distortion (VoxAC30) + delay

    C                         D#                          G#maj7

|-------------------------|-------------------------|
|-------------------------|-8-8-8-8-8-8-8-8-8-8-8-8-|
|-0-0-0-0-0-0/0-0-0-0-0-0-|-0-0-0-0-0-0-0-0-0-0-0-0-|
|-2-2-2-2-2-2/5-5-5-5-5-5-|-5-5-5-5-5-5-5-5-5-5-5-5-|
|-3-3-3-3-3-3/6-6-6-6-6-6-|-6-6-6-6-6-6-6-6-6-6-6-6-|
|-------------------------|-4-4-4-4-4-4-4-4-4-4-4-4-|


PreChorus: without delay


|----------------|-----------------|---------------|------------------|
|----------------|-----------------|---------------|------------------|
|----------------|-----------------|---------------|------------------|
|----------------|-----------------|---------------|------------------|
|---------6-6-6--|---------6-6-6-6-|---------6-6-6-|---------6-6-6-6--|
|-8p-6h-8---4-4--|-8p-6h-8---4-4-4-|-8p-6h-8---4-4-|-8p-6h-8---4-4-4--|


Chorus: i am not shure what mike uses, but i think it's a mix of phaser and a delay

     C             G#                   F

|-----------------|--------------------|
|-----------------|--------------------|
|-(9)----/5-------| 2)-----------------|
|-10-----/6-------|-3------------------|
|-10-----/6-------|-3------------------|
|--8-----/4-------|-1------------------|


PostChorus:

     F

|-----------------|
|-----------------|
|-2---------------|
|-3---------------|
|-3---------------|
|-1---------------|


Bridge: In my eyes the best part of the song!

|------------------|
|---------4--------|
|-----3-6--6-4-6---|
|-4-6------------6-|
|------------------|
|------------------|

Ending:

|-------------------|
|-------------------|
|-------------------|
|-----3-6-8-6-3-6---|
|-4-6-1-4-6-4-1-4-6-|
|-2-4-------------6-|






************************************

| /   slide up
| \   slide down
| h   hammer-on
| p   pull-off
| ~   vibrato
| +   harmonic
| x   Mute note
| b   Bend
| pb  Pre-bend
| br  Bend release
| pbr Pre-bend release
| brb Bend release bend

************************************
Get this song at amazon.com      Ebay     Ringtones Ringtones  


Learn to play: Songwriting, Piano, Harmonica, Guitar
Also available at Muzikum: Incubus - Adolescents lyrics

Related Incubus Tabs

Hilikus Bass tabs
Morning View (whole Album) tabs
New Skin Bass tabs
Aqueous Transmission tabs
Talk Show On Mute Solo tabs
Anti-gravity With Sax Solo tabs
Are You In Bass tabs
Nowhere Fast tabs
Look Alive tabs
Shaft tabs
11 A. M. tabs
Vitamin Bass tabs
Drive (Version 2) tabs
Sink Beneath The Line tabs
Science Album tabs
Megalomaniac tabs
Light Grenades tabs
Pantomime tabs
Magic Medicine tabs
Echo tabs


Guitar Tabs









All tabs are property and copyright of their owners. All tabs provided for educational purposes only. Privacy Policy, DMCA