Incubus

Adolescents Bass Tabs



More from Incubus

Incubus Tabs
Incubus Chords
Incubus Bass
Incubus Lyrics

 when the bass lays cause there are plenty of pauses during the chourus
BASS STARTS AT 0:26
Verse:
G|------------------------------------------------------------------------------|
D|-------------------------------------------------------Pre--------------------|
A|-------------------------------------------------------Chorus:----------------|
E|-8-6-8-6--4/1---8-6-8-6--4/1---8-6-8-6--4/1---8-6-8-6-4/1---88-8-4-4-88-8-4-4-|

G|------------------Chorus:------------------------------------------------------|
D|-------------------------------------------------------------------------------|
A|-------------------------------------------------------------------------------|
E|4-88-8-4-4-88-8-4-4-4----8-8-8-4-4-4-4-4-4-4-1-1-1-1-1-1-8-8-8-4-4-4-4-4-4-4-1-|

G|------------------------------------------------------------------------------|
D|------------------------------------------------------------------------------|
A|------------------------------------------------------------------------------|
E|1-1-1-1/13-13-13-13-8-8-8-4-4-4-4-4-4-4-1-1-1-1-1-4-4-4-4-4-8-8-8-4-4-4-4-4-1-|

G|----------------------------Verse:--------------------------------------------|
D|------------------------------------------------------------------------------|
A|------------------------------------------------------------------------------|
E|1-1-1-/13-13-13-13/1-1-1-1/8/13---8-6-8-6-4/1-8-6-8-6-4/1-8-6-8-6-4/1-8-6-8-6-|

G|------------------------------------Pre---------------------------------------|
D|-----------------------------------Chorus:------------------------------------|
A|------------------------------------------------------------------------------|
E|4/1-8-6-8-6-4/1-8-6-8-6-4/1-8-6-8-6-4/1---4-6-88-8-4-4-88-8-4-4-4-88-8-4-4----|

G|Chorus:-----------------------------------------------------------------------|
D|------------------------------------------------------------------------------|
A|------------------------------------------------------------------------------|
E|8-8-8-8-4-4-4-4-4-4-1-1-1-1-1-1-8-8-8-8-4-4-4-4-4-4-1-1-1-1-1/13-13-13-13-8-8-|

G|-------------------------------------------------------------------------------|
D|-------------------------------------------------------------------------------|
A|-------------------------------------------------------------------------------|
E|8-8-4-4-4-4-4-4-1-1-1-1-1-4-4-4-4-4-8-8-8-8-4-4-4-4-4-4-4-4-1-1-1-1-1/13-13-13-|

G|----------Guitar--------------------------------------------------------------|
D|------------Solo:----------------------------------------------6-8-10---------|
A|--------------------------6-----------------------6----------6----------------|
E|13/1-1-1-1/8/13---8-6-8-6--4-4-4-4-4-3-1--8-6-8-6----4-4-4-4----------8-6-8-6-|

G|------------------------------------------------------------------------------|
D|------------------------------------------------------------------------------|
A|6-----------6---------6---------11----11H13-9-9-9-9-9-9-9-9-9-9---------------|
E|--4-4-4-4-3---8-6-8-6---4-4-4-4----4----------------------------9-9-9-9-9-9-4-|

G|------------------------------------------------------------------------------|
D|------------------------------------------------------------------------------|
A|------------------6-6-6-6-6-6--4-6-4-9-9-9-9-9-9-9-9-9-9-11-11-11-------------|
E|4-4-4-4-4-4-4-4-4-------------------------------------------------9-9-9-9-9-9-|

G|-------------------------------------------------------------------------------|
D|-------------------------------------------------------------------------------|
A|----------------------------------6-6-6-6-6-6-6-4-6-4--9-9-9-9-9-9-9-9---------|
E|9-9-9-9-9-4-4-4-4-4-4-4-4-7-7-7-7--------------------------------------9-9-9-9-|

G|-------------------------------------------------------------------------------|
D|-------------------------------------------------------------------------------|
A|--------------------------6-6-6-6-6-6-4-6-4-9-9-9-9-9-9-9-9-9-11-11-11---------|
E|9-9-9-9-9-9-9-4-4-4-4-4-4----------------------------------------------9-9-9-9-|

G|---------------------------------------------Chorus:---------------------------|
D|-------------------------------------------------------------------------------|
A|-------------------------------------------------------------------------------|
E|9-9-9-4-4-4-4-4-4-4-4-4-4-4-4-4-7-4-4-4-4-4-4-4-4-4--8-8-8-8-4-4-4-4-4-4-1-1-1-|

G|-------------------------------------------------------------------------------|
D|-------------------------------------------------------------------------------|
A|-------------------------------------------------------------------------------|
E|1-1-1-1-1-8-8-8-8-4-4-4-4-4-4-4-4-1-1-1-1-1/13-13-13-8-8-8-8-4-4-4-4-4-4-1-1-1-|

G|-------------------------------------------------------------------------------|
D|-------------------------------------------------------------------------------|
A|-------------------------------------------------------------------------------|
E|1-1-4-4-4-4-4-8-8-8-8-4-4-4-4-4-4-4-4-1-1-1-1-1/13-13-13/-1-1-1-1/8/13/1/8/13--|

G|------------------------------------------------------------------------------|
D|-Outro:-----------------------------------------------------------------------|
A|-----------4-6-4---4----------------------------------------------------------|
E|1/8/13-4-6-------6---4--------------------------------------------------------|
Get this song at amazon.com      Ebay     Ringtones Ringtones  


Learn to play: Songwriting, Piano, Harmonica, Guitar
Also available at Muzikum: Incubus - Adolescents lyrics

Related Incubus Bass Tabs

Warning (5 String) bass
Idiot Box bass
A Certain Shade Of Green ( Perfect ) bass
Stellar( 4 And 5 String) bass
Warning (standard Tuning) bass
You Will Be A Hot Dancer bass
I Wish You Were Here bass
Smile Lines bass
Glass (complete Five String) bass
Adolescents bass
Made For Tv Movie bass
Warning bass
Answer bass
Anti-gravity bass
Have You Ever bass
11 Am Tab bass
Hilikus bass
Are You In bass
I Miss You bass
Megelomaniac bass


Guitar Tabs









All tabs are property and copyright of their owners. All tabs provided for educational purposes only. Privacy Policy, DMCA