Incubus

A Certain Shades Of Green [live] Bass Tabs



More from Incubus

Incubus Tabs
Incubus Chords
Incubus Bass
Incubus Lyrics




Incubus
A Certain Shade of Green from the album S.C.I.E.N.C.E
Standard Tuning

Intro (0:06)
|-----------------------|
|-----------------------|
|-----------------------|
|-6-6---6-6---6-6---6-6-|

|-----------------------------------------------------------|
|-----------------------------------------------------------|
|-5-5-5-5-5-5-5-5-6-6-6-6-5-5-5-5--5-5-8-8-8-8-0-6-6-5-5-|
|-----------------------------------------------------------|

|-------------------------|-----------------------|
|-------------------------|-----------------------|
|-------------------------|-----------------------|
|-7-7-7-7--7-7-7-7---7-7-|-6-6---6-6---6-6---6-6-|

Verse 1 (0:24)
|-------------------------|---------------9-----------------|
|-----------x-----x-----x-|---x-----x---------x-----x-----x-|
|-----4-------------------|---------------------------------|
|-0-3---3-0---x-0---x-0---|-0---x-0---0-x---0---x-0---x-0---|

Chorus (0:53)
|-----------------------------------------------------------|
|-----------------------------------------------------------|
|-5-5-5-5-5-5-5-5-6-6-6-6-5-5-5-5--5-5-8-8-8-8-0-6-6-5-5-|
|-----------------------------------------------------------|

|-------------------------|-----------------------|
|-------------------------|-----------------------|
|-------------------------|-----------------------|
|-7-7-7-7--7-7-7-7---7-7-|-6-6---6-6---6-6---6-6-|

Verse 2 (1:10)
|-------------------------|---------------9-----------------|
|-----------x-----x-----x-|---x-----x---------x-----x-----x-|
|-----4-------------------|---------------------------------|
|-0-3---3-0---x-0---x-0---|-0---x-0---0-x---0---x-0---x-0---|

Chorus (1:39)
|-----------------------------------------------------------|
|-----------------------------------------------------------|
|-5-5-5-5-5-5-5-5-6-6-6-6-5-5-5-5--5-5-8-8-8-8-0-6-6-5-5-|
|-----------------------------------------------------------|

|-------------------------|-----------------------|
|-------------------------|-----------------------|
|-------------------------|-----------------------|
|-7-7-7-7--7-7-7-7---7-7-|-6-6---6-6---6-6---6-6-|

Interlude Part 1 (1:56)
|-----------------------------------------|
|-----------------------------7-----------|
|-/8--7------55------44-------5-4-4-4-0-|
|--------0-0------0-------3-5-------------|

Interlude Part 2 (2:20-2:24)
|-----------------------------------------------|
|-----------------------|-----------------------|
|-----------------------|-----------------------|
|-6-6---6-6---6-6---6-6-|-6-6---6-6---6-6---6-6-|

Pre-Chorus (2:27)
|-------------------|
|-------------------|
|-8-8-8-8-0-6-6-5-5-|
|-------------------|

|-------------------------|-----------------------|
|-------------------------|-----------------------|
|-------------------------|-----------------------|
|-7-7-7-7--7-7-7-7---7-7-|-6-6---6-6---6-6---6-6-|

Chorus (2:32)
|-----------------------------------------------------------|
|-----------------------------------------------------------|
|-5-5-5-5-5-5-5-5-6-6-6-6-5-5-5-5--5-5-8-8-8-8-0-6-6-5-5-|
|-----------------------------------------------------------|

|-------------------------|-----------------------|
|-------------------------|-----------------------|
|-------------------------|-----------------------|
|-7-7-7-7--7-7-7-7---7-7-|-6-6---6-6---6-6---6-6-|

Outro (2:46)
|-----------------------|-----------------------|-----------------------|
|-----------------------|-----------------------|-----------------------|
|-----------------------|-----------------------|-----------------------|
|-6-6---6-6---6-6---6-6-|-6-6---6-6---6-6---6-6-|-6-6---6-6---6-6---6-6-|

|-----------------------|------------------------|
|-----------------------|------------------------|
|-----------------------|-7-7---7-7---7-7---7-7/-|
|-6-6---6-6---6-6---6-6-|------------------------|

(3:02)
|----|
|----|
|----|
|-0~-|



Get this song at amazon.com      Ebay     Ringtones Ringtones  


Learn to play: Songwriting, Piano, Harmonica, Guitar
More Incubus lyrics available at Muzikum

Related Incubus Bass Tabs

Crowded Elevator bass
Megalomaniac bass
Morning View bass
Calgone bass
Privelege bass
Monuments And Melodies bass
Leech bass
Wish You Were Here (4 String) bass
Out From Under bass
A Certain Shade Of Green ( Perfect ) bass
Redefine bass
Anti-gravity bass
Stellar bass
Shaft bass
Dig bass
Glass-6 String bass
A Crow Left Of The Murder bass
Psychopsilocybin bass
Made For Tv Movie bass
Have You Ever bass


Guitar Tabs









All tabs are property and copyright of their owners. All tabs provided for educational purposes only. Privacy Policy, DMCA