Incubus

A Certain Shade Of Green (acoustic) Tabs



More from Incubus

Incubus Tabs
Incubus Chords
Incubus Bass
Incubus Lyrics



Tabbed by: TheAdriest , theadriest@hotmail.com

(e-mail me if you find any error, or just if you have any question)





Hiii, lovers of good music. Im spanish, and Im sorry if I have too much writing mistakes
:-(
Well, I heard that song, then, I saw the tabs here in this page, and I think they have some
errors.
Here we go, my version





Intro: x2


e|--------5--------------------------5---------------------------------
B|--------7--x-7---7-7-7----8-8------7--x-7--7--x---7--7-7-------------
G|----6---6--x-6---6-6-6-7--7-7--6---6--x-6--6--x---6--6-6-------------
D|----7---7--x-7---7-7-7-8--8-8--7---7--x-7--7--x---7--7-7-------------
A|----5--------5---5-5-5-6--6-6--5---5----5--5------5--5-5-------------
E|---------------------------------------------------------------------

e|--------2----2---2----2-2-------------1-----1---1-----1-1-1----------
B|--------3--x-3---3--x-3-3---------3---3-x---3---3--x--3-3-3----------
G|--------2--x-2---2--x-2-2---------2---2-x---2---2--x--2-2-2----------
D|----4---4--x-4---4--x-4-4---------3---3-x---3---3--x--3-3-3----------
A|----2--------2---2----2-2---------1---1-----1---1-----1-1-1----------
E|---------------------------------------------------------------------



Verse 1:


e|---9-----------9-------9---9-10--9---7-9-7---7--------7---------7----
B|--10----------10------10--10-10-10---9-9-9---8--------8-------8------
G|--11----------11------11---------------------9----------------9------
D|---------------------------------------------------------------------
A|---------------------------------------------------------------------
E|---------------------------------------------------------------------

e|------5---5--5-----5-----------------------9-10--9---9-------9-10--9-
B|--7---7---6--6-----6-6--0----10--10---10--10-10--10--10-----10-10-10-
G|------6---6--6------------7------11-------11-11------11-----11-------
D|---------------------------------------------------------------------
A|---------------------------------------------------------------------
E|---------------------------------------------------------------------

e|----8-9-8---7--------7------7------------5------------5--------------
B|----9-9-9---8--------8------8---------7-----7------6-----6-----------
G|---10-------9--------9------9------6------------6--------------------
D|---------------------------------------------------------------------
A|---------------------------------------------------------------------
E|---------------------------------------------------------------------

e|----9-----9-----9-10--9-------------9---9-10--9----8-9-8---7------7--
B|---10----10----10-10-10--10-10-----10--10-10-10----9-9-9---8------8--
G|---11----11-----------------11-----------------------------9------9--
D|---------------------------------------------------------------------
A|---------------------------------------------------------------------
E|---------------------------------------------------------------------

e|-------------------5---5---5---------5--------9-----9-----9--9--9-10-
B|---8---8-----------7---7-----6--6------6--0--10----10----10-10-10-10-
G|-------7--------6------6-----6--6------------11----11----11----------
D|---------------------------------------------------------------------
A|---------------------------------------------------------------------
E|---------------------------------------------------------------------

e|--9--9--9----9--9---9--9-----9---9--8--8--8--7---7----7-7--7------7--
B|-10-10-10---10-10--10-10----10--10--9--9--9--8---8--8-8-8--8----8----
G|-------11---11-11--11-11---------------------9----------9--9----9----
D|---------------------------------------------------------------------
A|---------------------------------------------------------------------
E|---------------------------------------------------------------------

e|--5--5-----5--5--5---------------------------------------------------
B|--7--7--7--7--6--6--6-----0-0----------------------------------------
G|--------6-----6--6--6-----0------------------------------------------
D|--------------------0------------------------------------------------
A|---------------------------------------------------------------------
E|---------------------------------------------------------------------

Chorus: x2

Just the same chords than the Intro:

e|--------------------------2......1......-----------------------------
B|-------7.......8...7......3......3......-----------------------------
G|-------6.......7...6......2......2......-----------------------------
D|-------7.......8...7......4......3......-----------------------------
A|---5---5.......6...5......2......1......-----------------------------
E|---------------------------------------------------------------------

Solo:

e|------------9-8-7-5--5-7-5-----5-5-----------------------------------
B|-----------------------------------7^8--7--5--7-5--3--3-5--5^7--5-3-5
G|-5^6--5^6------------------------------------------------------------
D|---------------------------------------------------------------------
A|---------------------------------------------------------------------
E|---------------------------------------------------------------------

e|-----------------------------------9---9--9---10--9--10/12--12--12-12
B|--3-5----6--6^8--6--6-5--5-3/-----10--10-10--------------------------
G|---------------------------------------------------------------------
D|---------------------------------------------------------------------
A|---------------------------------------------------------------------
E|---------------------------------------------------------------------

e|-10--9--10--9---7--9^10--9--7--9--9^10--9^10--9--7--5-7--5--5/8-8-8-8
B|---------------------------------------------------------------------
G|---------------------------------------------------------------------
D|---------------------------------------------------------------------
A|---------------------------------------------------------------------
E|---------------------------------------------------------------------

e|-8-8-8-8-8-----------------------------------------------------------
B|---------------------------------------------------------------------
G|---------------------------------------------------------------------
D|---------------------------------------------------------------------
A|---------------------------------------------------------------------
E|---------------------------------------------------------------------

Verse 2:

e|--9---------9---9---9---9---9-10--9---------7-------7------7---------
B|-10--------10--10------10--10-10-10----9----8-------8------8---0-----
G|-11--------11--11---------------------10----9----9------9------------
D|---------------------------------------------------------------------
A|---------------------------------------------------------------------
E|---------------------------------------------------------------------

e|-------7-----------7---------------8---------------9--9-----9------9-
B|----5-----5-----6-----6--------8---9---9/10-------10-10----10---10---
G|-6-----------6--------------9-----10--10/11---11--------11-----------
D|---------------------------------------------------------------------
A|---------------------------------------------------------------------
E|---------------------------------------------------------------------

e|--9-10--9---8-9-8---9---9----9---9--9---------5--5------5-5---5------
B|-10-10-10---9-9-9---8---8----8---8--8----7----7--7---6--6-6---6------
G|--------------------7-----7--------------6-----------6--6-6---6------
D|---------------------------------------------------------------------
A|---------------------------------------------------------------------
E|---------------------------------------------------------------------

e|--9----9---9--9--------9--10--10-10--9--9---9----9--9----9-10--9-----
B|-10---10-----10---10-------9---9--9----10--10---10-10---10-10-10-----
G|-11---11----------11-------------------11--11------11---11----11-----
D|---------------------------------------------------------------------
A|---------------------------------------------------------------------
E|---------------------------------------------------------------------

e|--8-9-8---7--7--7--7--7--7---7--7----5--5--5--5----5-5-5----9---9---9
B|--9---9---8--8--8--8-----8---8--8----7--7--7--6----6-6-6---10--10--10
G|-10----------9--9--9---------9--9----6--6--6--6----6-----------11----
D|---------------------------------------------------------------------
A|---------------------------------------------------------------------
E|---------------------------------------------------------------------

e|-10--10-10--9----9--------9----9------8-8---7--7--7--7--7-7----5-----
B|-10--10-10-10---10--10---10---10-10---9-9---8--8--8--8----8------7---
G|-11-------------11--11-----------11---------9--9-----9---------------
D|---------------------------------------------------------------------
A|---------------------------------------------------------------------
E|---------------------------------------------------------------------

e|----5--5--5--5--5----------------------------------------------------
B|-7--7-----6--6--6--0-0-----------------------------------------------
G|-6--6-----6--6--6--0-------------------------------------------------
D|---------------------------------------------------------------------
A|---------------------------------------------------------------------
E|---------------------------------------------------------------------

Chorus x2:

e|--------------------------2......1-----------------------------------
B|-------7.......8...7......3......3-----------------------------------
G|-------6.......7...6......2......2-----------------------------------
D|-------7.......8...7......4......3-----------------------------------
A|---5---5.......6...5......2......1-----------------------------------
E|---------------------------------------------------------------------


Then:

e|---9--9...----8---7--7...-----5--5--5--5--5--5--5--5-----------------
B|--10-10...----9---8--8...-----7--7--7--7--6--6--6--6-----------------
G|--11-11...---10---9--9...-----6--6--6--6--6--6--6--6-----------------
D|---------------------------------------------------------------------
A|---------------------------------------------------------------------
E|---------------------------------------------------------------------


Chorus x2:

e|--------------------------2......1......-----------------------------
B|-------7.......8...7......3......3......-----------------------------
G|-------6.......7...6......2......2......-----------------------------
D|-------7.......8...7......4......3......-----------------------------
A|---5---5.......6...5......2......1......-----------------------------
E|---------------------------------------------------------------------








Thats all folks. Just enjoy it!


Get this song at amazon.com      Ebay     Ringtones Ringtones  


Learn to play: Songwriting, Piano, Harmonica, Guitar
More Incubus lyrics available at Muzikum

Related Incubus Tabs

Version tabs
Nice To Know You Live tabs
Happy Birthday tabs
Love Hurts Bass tabs
A Certain Shade Of Green Crd tabs
Drive tabs
Clean tabs
Out From Under tabs
A Kiss To Send Us Off tabs
Morning View tabs
Megalomaniac (2) tabs
Love Hurts tabs
Idiotbox tabs
Acqueous Transmission tabs
Drive Live tabs
Glass Bass tabs
Clean2 tabs
You Are Stellar tabs
Summer Romance tabs
Aqueous Transmission6 tabs


Guitar Tabs









All tabs are property and copyright of their owners. All tabs provided for educational purposes only. Privacy Policy, DMCA