Incubus

A Certain Shade Of Green ( Perfect ) Bass Tabs



More from Incubus

Incubus Tabs
Incubus Chords
Incubus Bass
Incubus Lyrics



INCUBUS - A CERTAIN SHADE OF GREEN
KEY:
S - SLAP / - SLIDE UP
P - POP - SLIDE DOWN
L - LEFT HAND SLAP


intro

|-----------------------| |---------------------------------------|
|-----------------------| |---------------------------------------|
|-guitar break at first-| then play |---------------------------------------|
|-----------------------| |-6--6-------6--6-------6--6-------6--6-|

|----------------|----------------------|--------------|----------------|
|----------------|----------------------|--------------|----------------|
|-5555-5555-6666-|-5555--55-888-0-66-66-|--------------|----------------|
|----------------|----------------------|-7777-7777-77-|-66--66--66--66-|

verse

|-----------|------------------------9----------------------------|
|-----------|-----x--------x---------------x----------x---------x-|
|-----4-----|-----------------------------------------------------|
|-0-3---3-0-|-0------x--0-----0--x------0-----x---0------x---0----|
S P L S P S L P S P L S P L S

chorus

|----------------|----------------------|--------------|----------------|
|----------------|----------------------|--------------|----------------|
|-5555-5555-6666-|-5555--55-888-0-66-66-|--------------|----------------|
|----------------|----------------------|-7777-7777-77-|-66--66--66--66-|

bridge

|----------------------------------------------------------|
|------------------------------------------7---------------|
|-/8----7---------5--5-------4--4--------------5--4-4-4-0--|
|---------0---0-----------0---------3--5-------------------|

|------------------------------------------|
|------------------------------------------|
|------------------------------------------|
|-66---66---66---66------66---66---66---66-|

pre chorus only after bridge:

|----------------------------|-------------------|
|----------------------------|-------------------|
|-888-00-6666----------------|-------------------|
|--------------7777--7777-77-|-66---66---66---66-|

outro

|------------------------------------------|
|------------------------------------------|
|------------------------------------------|
|-66---66---66---66------66---66---66---66-|

|---------------------|---------------------|---|
|---------------------|---------------------|---|
|---------------------|--77---77---77---77-|---|
|-66---66---66---66---|---------------------|-0-|


i didnt put the order or how many times you play each part but it is very easy
to find out on your own, so good luck and please rate this tab :)



Get this song at amazon.com      Ebay     Ringtones Ringtones  


Learn to play: Songwriting, Piano, Harmonica, Guitar
More Incubus lyrics available at Muzikum

Related Incubus Bass Tabs

Drive Live bass
Wish You Were Here[100% Correct] bass
Warning (5 String) bass
Medium bass
The Answer bass
Make A Move bass
Glass bass
Speak Free Intro bass
Megalomaniac bass
Crowded Elevator (5 String) bass
Crowded Elevator bass
Megalomaniac Perfect With All Fills bass
Redefine (5 String) bass
Incubus-redefine bass
Nebula bass
Warning bass
Nowhere Fast bass
Da Warmth bass
Shaft bass
Dig bass


Guitar Tabs









All tabs are property and copyright of their owners. All tabs provided for educational purposes only. Privacy Policy, DMCA